 0
SECTION
 2
HEADER
 0
ENDSEC
 0
SECTION
 2
TABLES
 0
TABLE
 2
LTYPE
 70
1
 0
ENDTAB
 0
TABLE
 2
LAYER
 70
1
 0
LAYER
 2
0
 70
0
 62
7
 6
CONTINUOUS
 0
ENDTAB
 0
TABLE
 2
STYLE
 70
1
 0
STYLE
 2
STANDARD
 70
0
 40
0.500000
 41
1.000000
 50
30.000000
 71
0
 42
0.500000
 3
txt
 4

 0
ENDTAB
 0
ENDSEC
 0
SECTION
 2
ENTITIES
 0
LINE
 8
0
 6
CONTINUOUS
 62
7
 10
-81.733736
 20
-148.800004
 30
0.000000
 11
-81.802450
 21
-148.800004
 31
0.000000
 0
LINE
 8
0
 6
CONTINUOUS
 62
7
 10
-80.950027
 20
-148.800004
 30
0.000000
 11
-81.438881
 21
-148.800004
 31
0.000000
 0
LINE
 8
0
 6
CONTINUOUS
 62
7
 10
-81.438881
 20
-148.800004
 30
0.000000
 11
-81.733736
 21
-148.800004
 31
0.000000
 0
LINE
 8
0
 6
CONTINUOUS
 62
7
 10
-78.202449
 20
-148.800004
 30
0.000000
 11
-78.271163
 21
-148.800004
 31
0.000000
 0
LINE
 8
0
 6
CONTINUOUS
 62
7
 10
-78.271163
 20
-148.800004
 30
0.000000
 11
-78.566018
 21
-148.800004
 31
0.000000
 0
LINE
 8
0
 6
CONTINUOUS
 62
7
 10
-78.566018
 20
-148.800004
 30
0.000000
 11
-79.054872
 21
-148.800004
 31
0.000000
 0
LINE
 8
0
 6
CONTINUOUS
 62
7
 10
-79.054872
 20
-148.800004
 30
0.000000
 11
-79.671700
 21
-148.800004
 31
0.000000
 0
LINE
 8
0
 6
CONTINUOUS
 62
7
 10
-79.671700
 20
-148.800004
 30
0.000000
 11
-80.333199
 21
-148.800004
 31
0.000000
 0
LINE
 8
0
 6
CONTINUOUS
 62
7
 10
-80.333199
 20
-148.800004
 30
0.000000
 11
-80.950027
 21
-148.800004
 31
0.000000
 0
LINE
 8
0
 6
CONTINUOUS
 62
7
 10
-86.502450
 20
-148.800004
 30
0.000000
 11
-73.502449
 21
-148.800004
 31
0.000000
 0
LINE
 8
0
 6
CONTINUOUS
 62
7
 10
-73.352449
 20
-148.800004
 30
0.000000
 11
-86.652450
 21
-148.800004
 31
0.000000
 0
LINE
 8
0
 6
CONTINUOUS
 62
7
 10
-86.852450
 20
-150.000004
 30
0.000000
 11
-73.152449
 21
-150.000004
 31
0.000000
 0
LINE
 8
0
 6
CONTINUOUS
 62
7
 10
-86.852450
 20
-149.000004
 30
0.000000
 11
-73.152449
 21
-149.000004
 31
0.000000
 0
LINE
 8
0
 6
CONTINUOUS
 62
7
 10
-73.152449
 20
-148.800004
 30
0.000000
 11
-86.852450
 21
-148.800004
 31
0.000000
 0
LINE
 8
0
 6
CONTINUOUS
 62
7
 10
-86.852450
 20
-149.000004
 30
0.000000
 11
-86.852450
 21
-148.800004
 31
0.000000
 0
LINE
 8
0
 6
CONTINUOUS
 62
7
 10
-86.852450
 20
-150.000004
 30
0.000000
 11
-86.852450
 21
-149.000004
 31
0.000000
 0
LINE
 8
0
 6
CONTINUOUS
 62
7
 10
-73.152449
 20
-148.800004
 30
0.000000
 11
-73.152449
 21
-149.000004
 31
0.000000
 0
LINE
 8
0
 6
CONTINUOUS
 62
7
 10
-73.152449
 20
-149.000004
 30
0.000000
 11
-73.152449
 21
-150.000004
 31
0.000000
 0
ENDSEC
 0
EOF
