 0
SECTION
 2
HEADER
 0
ENDSEC
 0
SECTION
 2
TABLES
 0
TABLE
 2
LTYPE
 70
1
 0
ENDTAB
 0
TABLE
 2
LAYER
 70
1
 0
LAYER
 2
0
 70
0
 62
7
 6
CONTINUOUS
 0
ENDTAB
 0
TABLE
 2
STYLE
 70
1
 0
STYLE
 2
STANDARD
 70
0
 40
0.500000
 41
1.000000
 50
30.000000
 71
0
 42
0.500000
 3
txt
 4

 0
ENDTAB
 0
ENDSEC
 0
SECTION
 2
ENTITIES
 0
LINE
 8
0
 6
CONTINUOUS
 62
7
 10
-65.345041
 20
32.765514
 30
0.000000
 11
-64.852448
 21
32.834228
 31
0.000000
 0
LINE
 8
0
 6
CONTINUOUS
 62
7
 10
-66.382839
 20
31.981806
 30
0.000000
 11
-65.937190
 21
32.470659
 31
0.000000
 0
LINE
 8
0
 6
CONTINUOUS
 62
7
 10
-65.937190
 20
32.470659
 30
0.000000
 11
-65.345041
 21
32.765514
 31
0.000000
 0
LINE
 8
0
 6
CONTINUOUS
 62
7
 10
-46.452448
 20
29.234228
 30
0.000000
 11
-64.852448
 21
29.234228
 31
0.000000
 0
LINE
 8
0
 6
CONTINUOUS
 62
7
 10
-64.852448
 20
29.234228
 30
0.000000
 11
-65.345041
 21
29.302942
 31
0.000000
 0
LINE
 8
0
 6
CONTINUOUS
 62
7
 10
-65.345041
 20
29.302942
 30
0.000000
 11
-65.937190
 21
29.597797
 31
0.000000
 0
LINE
 8
0
 6
CONTINUOUS
 62
7
 10
-65.937190
 20
29.597797
 30
0.000000
 11
-66.382839
 21
30.086650
 31
0.000000
 0
LINE
 8
0
 6
CONTINUOUS
 62
7
 10
-66.382839
 20
30.086650
 30
0.000000
 11
-66.621800
 21
30.703479
 31
0.000000
 0
LINE
 8
0
 6
CONTINUOUS
 62
7
 10
-66.621800
 20
30.703479
 30
0.000000
 11
-66.621800
 21
31.364977
 31
0.000000
 0
LINE
 8
0
 6
CONTINUOUS
 62
7
 10
-66.621800
 20
31.364977
 30
0.000000
 11
-66.382839
 21
31.981806
 31
0.000000
 0
LINE
 8
0
 6
CONTINUOUS
 62
7
 10
-69.452448
 20
37.534228
 30
0.000000
 11
-69.452448
 21
24.534228
 31
0.000000
 0
LINE
 8
0
 6
CONTINUOUS
 62
7
 10
-45.959855
 20
29.302942
 30
0.000000
 11
-46.452448
 21
29.234228
 31
0.000000
 0
LINE
 8
0
 6
CONTINUOUS
 62
7
 10
-69.452448
 20
24.534228
 30
0.000000
 11
-4.452449
 21
24.534228
 31
0.000000
 0
LINE
 8
0
 6
CONTINUOUS
 62
7
 10
-27.452449
 20
29.234228
 30
0.000000
 11
-27.945042
 21
29.302942
 31
0.000000
 0
LINE
 8
0
 6
CONTINUOUS
 62
7
 10
-27.945042
 20
29.302942
 30
0.000000
 11
-28.537191
 21
29.597797
 31
0.000000
 0
LINE
 8
0
 6
CONTINUOUS
 62
7
 10
-28.537191
 20
29.597797
 30
0.000000
 11
-28.982840
 21
30.086650
 31
0.000000
 0
LINE
 8
0
 6
CONTINUOUS
 62
7
 10
-28.982840
 20
30.086650
 30
0.000000
 11
-29.221800
 21
30.703479
 31
0.000000
 0
LINE
 8
0
 6
CONTINUOUS
 62
7
 10
-29.221800
 20
30.703479
 30
0.000000
 11
-29.221800
 21
31.364977
 31
0.000000
 0
LINE
 8
0
 6
CONTINUOUS
 62
7
 10
-29.221800
 20
31.364977
 30
0.000000
 11
-28.982840
 21
31.981806
 31
0.000000
 0
LINE
 8
0
 6
CONTINUOUS
 62
7
 10
-28.982840
 20
31.981806
 30
0.000000
 11
-28.537191
 21
32.470659
 31
0.000000
 0
LINE
 8
0
 6
CONTINUOUS
 62
7
 10
-28.537191
 20
32.470659
 30
0.000000
 11
-27.945042
 21
32.765514
 31
0.000000
 0
LINE
 8
0
 6
CONTINUOUS
 62
7
 10
-27.945042
 20
32.765514
 30
0.000000
 11
-27.452449
 21
32.834228
 31
0.000000
 0
LINE
 8
0
 6
CONTINUOUS
 62
7
 10
-27.452449
 20
32.834228
 30
0.000000
 11
-9.052449
 21
32.834228
 31
0.000000
 0
LINE
 8
0
 6
CONTINUOUS
 62
7
 10
-9.052449
 20
32.834228
 30
0.000000
 11
-8.559856
 21
32.765514
 31
0.000000
 0
LINE
 8
0
 6
CONTINUOUS
 62
7
 10
-8.559856
 20
32.765514
 30
0.000000
 11
-7.967707
 21
32.470659
 31
0.000000
 0
LINE
 8
0
 6
CONTINUOUS
 62
7
 10
-7.967707
 20
32.470659
 30
0.000000
 11
-7.522058
 21
31.981806
 31
0.000000
 0
LINE
 8
0
 6
CONTINUOUS
 62
7
 10
-7.522058
 20
31.981806
 30
0.000000
 11
-7.283098
 21
31.364977
 31
0.000000
 0
LINE
 8
0
 6
CONTINUOUS
 62
7
 10
-4.452449
 20
24.534228
 30
0.000000
 11
-4.452449
 21
37.534228
 31
0.000000
 0
LINE
 8
0
 6
CONTINUOUS
 62
7
 10
-7.283098
 20
31.364977
 30
0.000000
 11
-7.283098
 21
30.703479
 31
0.000000
 0
LINE
 8
0
 6
CONTINUOUS
 62
7
 10
-7.283098
 20
30.703479
 30
0.000000
 11
-7.522058
 21
30.086650
 31
0.000000
 0
LINE
 8
0
 6
CONTINUOUS
 62
7
 10
-7.522058
 20
30.086650
 30
0.000000
 11
-7.967707
 21
29.597797
 31
0.000000
 0
LINE
 8
0
 6
CONTINUOUS
 62
7
 10
-7.967707
 20
29.597797
 30
0.000000
 11
-8.559856
 21
29.302942
 31
0.000000
 0
LINE
 8
0
 6
CONTINUOUS
 62
7
 10
-8.559856
 20
29.302942
 30
0.000000
 11
-9.052449
 21
29.234228
 31
0.000000
 0
LINE
 8
0
 6
CONTINUOUS
 62
7
 10
-9.052449
 20
29.234228
 30
0.000000
 11
-27.452449
 21
29.234228
 31
0.000000
 0
LINE
 8
0
 6
CONTINUOUS
 62
7
 10
-45.367706
 20
29.597797
 30
0.000000
 11
-45.959855
 21
29.302942
 31
0.000000
 0
LINE
 8
0
 6
CONTINUOUS
 62
7
 10
-39.652448
 20
29.234228
 30
0.000000
 11
-40.145042
 21
29.302942
 31
0.000000
 0
LINE
 8
0
 6
CONTINUOUS
 62
7
 10
-44.922058
 20
30.086650
 30
0.000000
 11
-45.367706
 21
29.597797
 31
0.000000
 0
LINE
 8
0
 6
CONTINUOUS
 62
7
 10
-40.145042
 20
29.302942
 30
0.000000
 11
-40.737191
 21
29.597797
 31
0.000000
 0
LINE
 8
0
 6
CONTINUOUS
 62
7
 10
-44.683097
 20
30.703479
 30
0.000000
 11
-44.922058
 21
30.086650
 31
0.000000
 0
LINE
 8
0
 6
CONTINUOUS
 62
7
 10
-40.737191
 20
29.597797
 30
0.000000
 11
-41.182839
 21
30.086650
 31
0.000000
 0
LINE
 8
0
 6
CONTINUOUS
 62
7
 10
-4.452449
 20
37.534228
 30
0.000000
 11
-69.452448
 21
37.534228
 31
0.000000
 0
LINE
 8
0
 6
CONTINUOUS
 62
7
 10
-46.452448
 20
32.834228
 30
0.000000
 11
-45.959855
 21
32.765514
 31
0.000000
 0
LINE
 8
0
 6
CONTINUOUS
 62
7
 10
-45.959855
 20
32.765514
 30
0.000000
 11
-45.367706
 21
32.470659
 31
0.000000
 0
LINE
 8
0
 6
CONTINUOUS
 62
7
 10
-45.367706
 20
32.470659
 30
0.000000
 11
-44.922058
 21
31.981806
 31
0.000000
 0
LINE
 8
0
 6
CONTINUOUS
 62
7
 10
-44.922058
 20
31.981806
 30
0.000000
 11
-44.683097
 21
31.364977
 31
0.000000
 0
LINE
 8
0
 6
CONTINUOUS
 62
7
 10
-44.683097
 20
31.364977
 30
0.000000
 11
-44.683097
 21
30.703479
 31
0.000000
 0
LINE
 8
0
 6
CONTINUOUS
 62
7
 10
-41.182839
 20
30.086650
 30
0.000000
 11
-41.421800
 21
30.703479
 31
0.000000
 0
LINE
 8
0
 6
CONTINUOUS
 62
7
 10
-34.252449
 20
32.834228
 30
0.000000
 11
-33.759855
 21
32.765514
 31
0.000000
 0
LINE
 8
0
 6
CONTINUOUS
 62
7
 10
-33.759855
 20
32.765514
 30
0.000000
 11
-33.167706
 21
32.470659
 31
0.000000
 0
LINE
 8
0
 6
CONTINUOUS
 62
7
 10
-33.167706
 20
32.470659
 30
0.000000
 11
-32.722058
 21
31.981806
 31
0.000000
 0
LINE
 8
0
 6
CONTINUOUS
 62
7
 10
-32.722058
 20
31.981806
 30
0.000000
 11
-32.483097
 21
31.364977
 31
0.000000
 0
LINE
 8
0
 6
CONTINUOUS
 62
7
 10
-32.483097
 20
31.364977
 30
0.000000
 11
-32.483097
 21
30.703479
 31
0.000000
 0
LINE
 8
0
 6
CONTINUOUS
 62
7
 10
-32.483097
 20
30.703479
 30
0.000000
 11
-32.722058
 21
30.086650
 31
0.000000
 0
LINE
 8
0
 6
CONTINUOUS
 62
7
 10
-32.722058
 20
30.086650
 30
0.000000
 11
-33.167706
 21
29.597797
 31
0.000000
 0
LINE
 8
0
 6
CONTINUOUS
 62
7
 10
-33.167706
 20
29.597797
 30
0.000000
 11
-33.759855
 21
29.302942
 31
0.000000
 0
LINE
 8
0
 6
CONTINUOUS
 62
7
 10
-33.759855
 20
29.302942
 30
0.000000
 11
-34.252449
 21
29.234228
 31
0.000000
 0
LINE
 8
0
 6
CONTINUOUS
 62
7
 10
-34.252449
 20
29.234228
 30
0.000000
 11
-39.652448
 21
29.234228
 31
0.000000
 0
LINE
 8
0
 6
CONTINUOUS
 62
7
 10
-41.421800
 20
30.703479
 30
0.000000
 11
-41.421800
 21
31.364977
 31
0.000000
 0
LINE
 8
0
 6
CONTINUOUS
 62
7
 10
-41.421800
 20
31.364977
 30
0.000000
 11
-41.182839
 21
31.981806
 31
0.000000
 0
LINE
 8
0
 6
CONTINUOUS
 62
7
 10
-41.182839
 20
31.981806
 30
0.000000
 11
-40.737191
 21
32.470659
 31
0.000000
 0
LINE
 8
0
 6
CONTINUOUS
 62
7
 10
-40.737191
 20
32.470659
 30
0.000000
 11
-40.145042
 21
32.765514
 31
0.000000
 0
LINE
 8
0
 6
CONTINUOUS
 62
7
 10
-40.145042
 20
32.765514
 30
0.000000
 11
-39.652448
 21
32.834228
 31
0.000000
 0
LINE
 8
0
 6
CONTINUOUS
 62
7
 10
-64.852448
 20
32.834228
 30
0.000000
 11
-46.452448
 21
32.834228
 31
0.000000
 0
LINE
 8
0
 6
CONTINUOUS
 62
7
 10
-39.652448
 20
32.834228
 30
0.000000
 11
-34.252449
 21
32.834228
 31
0.000000
 0
LINE
 8
0
 6
CONTINUOUS
 62
7
 10
-69.602448
 20
24.384228
 30
0.000000
 11
-69.602448
 21
37.684228
 31
0.000000
 0
LINE
 8
0
 6
CONTINUOUS
 62
7
 10
-69.602448
 20
37.684228
 30
0.000000
 11
-4.302449
 21
37.684228
 31
0.000000
 0
LINE
 8
0
 6
CONTINUOUS
 62
7
 10
-4.302449
 20
37.684228
 30
0.000000
 11
-4.302449
 21
24.384228
 31
0.000000
 0
LINE
 8
0
 6
CONTINUOUS
 62
7
 10
-4.302449
 20
24.384228
 30
0.000000
 11
-69.602448
 21
24.384228
 31
0.000000
 0
LINE
 8
0
 6
CONTINUOUS
 62
7
 10
-0.952449
 20
37.884228
 30
0.000000
 11
-0.952449
 21
24.184228
 31
0.000000
 0
LINE
 8
0
 6
CONTINUOUS
 62
7
 10
-72.952448
 20
24.184228
 30
0.000000
 11
-72.952448
 21
37.884228
 31
0.000000
 0
LINE
 8
0
 6
CONTINUOUS
 62
7
 10
-72.952448
 20
37.884228
 30
0.000000
 11
-0.952449
 21
37.884228
 31
0.000000
 0
LINE
 8
0
 6
CONTINUOUS
 62
7
 10
-0.952449
 20
24.184228
 30
0.000000
 11
-72.952448
 21
24.184228
 31
0.000000
 0
ENDSEC
 0
EOF
