 0
SECTION
 2
HEADER
 0
ENDSEC
 0
SECTION
 2
TABLES
 0
TABLE
 2
LTYPE
 70
1
 0
ENDTAB
 0
TABLE
 2
LAYER
 70
1
 0
LAYER
 2
0
 70
0
 62
7
 6
CONTINUOUS
 0
ENDTAB
 0
TABLE
 2
STYLE
 70
1
 0
STYLE
 2
STANDARD
 70
0
 40
0.500000
 41
1.000000
 50
30.000000
 71
0
 42
0.500000
 3
txt
 4

 0
ENDTAB
 0
ENDSEC
 0
SECTION
 2
ENTITIES
 0
LINE
 8
0
 6
CONTINUOUS
 62
7
 10
-46.452448
 20
-148.799996
 30
0.000000
 11
-64.852448
 21
-148.799996
 31
0.000000
 0
LINE
 8
0
 6
CONTINUOUS
 62
7
 10
-64.852448
 20
-148.799996
 30
0.000000
 11
-65.345041
 21
-148.799996
 31
0.000000
 0
LINE
 8
0
 6
CONTINUOUS
 62
7
 10
-65.345041
 20
-148.799996
 30
0.000000
 11
-65.937190
 21
-148.799996
 31
0.000000
 0
LINE
 8
0
 6
CONTINUOUS
 62
7
 10
-65.937190
 20
-148.799996
 30
0.000000
 11
-66.382839
 21
-148.799996
 31
0.000000
 0
LINE
 8
0
 6
CONTINUOUS
 62
7
 10
-66.382839
 20
-148.799996
 30
0.000000
 11
-66.621800
 21
-148.799996
 31
0.000000
 0
LINE
 8
0
 6
CONTINUOUS
 62
7
 10
-45.959855
 20
-148.799996
 30
0.000000
 11
-46.452448
 21
-148.799996
 31
0.000000
 0
LINE
 8
0
 6
CONTINUOUS
 62
7
 10
-27.452449
 20
-148.799996
 30
0.000000
 11
-27.945042
 21
-148.799996
 31
0.000000
 0
LINE
 8
0
 6
CONTINUOUS
 62
7
 10
-27.945042
 20
-148.799996
 30
0.000000
 11
-28.537191
 21
-148.799996
 31
0.000000
 0
LINE
 8
0
 6
CONTINUOUS
 62
7
 10
-28.537191
 20
-148.799996
 30
0.000000
 11
-28.982840
 21
-148.799996
 31
0.000000
 0
LINE
 8
0
 6
CONTINUOUS
 62
7
 10
-28.982840
 20
-148.799996
 30
0.000000
 11
-29.221800
 21
-148.799996
 31
0.000000
 0
LINE
 8
0
 6
CONTINUOUS
 62
7
 10
-7.283098
 20
-148.799996
 30
0.000000
 11
-7.522058
 21
-148.799996
 31
0.000000
 0
LINE
 8
0
 6
CONTINUOUS
 62
7
 10
-7.522058
 20
-148.799996
 30
0.000000
 11
-7.967707
 21
-148.799996
 31
0.000000
 0
LINE
 8
0
 6
CONTINUOUS
 62
7
 10
-7.967707
 20
-148.799996
 30
0.000000
 11
-8.559856
 21
-148.799996
 31
0.000000
 0
LINE
 8
0
 6
CONTINUOUS
 62
7
 10
-8.559856
 20
-148.799996
 30
0.000000
 11
-9.052449
 21
-148.799996
 31
0.000000
 0
LINE
 8
0
 6
CONTINUOUS
 62
7
 10
-9.052449
 20
-148.799996
 30
0.000000
 11
-27.452449
 21
-148.799996
 31
0.000000
 0
LINE
 8
0
 6
CONTINUOUS
 62
7
 10
-45.367706
 20
-148.799996
 30
0.000000
 11
-45.959855
 21
-148.799996
 31
0.000000
 0
LINE
 8
0
 6
CONTINUOUS
 62
7
 10
-39.652448
 20
-148.799996
 30
0.000000
 11
-40.145042
 21
-148.799996
 31
0.000000
 0
LINE
 8
0
 6
CONTINUOUS
 62
7
 10
-44.922058
 20
-148.799996
 30
0.000000
 11
-45.367706
 21
-148.799996
 31
0.000000
 0
LINE
 8
0
 6
CONTINUOUS
 62
7
 10
-40.145042
 20
-148.799996
 30
0.000000
 11
-40.737191
 21
-148.799996
 31
0.000000
 0
LINE
 8
0
 6
CONTINUOUS
 62
7
 10
-44.683097
 20
-148.799996
 30
0.000000
 11
-44.922058
 21
-148.799996
 31
0.000000
 0
LINE
 8
0
 6
CONTINUOUS
 62
7
 10
-40.737191
 20
-148.799996
 30
0.000000
 11
-41.182839
 21
-148.799996
 31
0.000000
 0
LINE
 8
0
 6
CONTINUOUS
 62
7
 10
-32.483097
 20
-148.799996
 30
0.000000
 11
-32.722058
 21
-148.799996
 31
0.000000
 0
LINE
 8
0
 6
CONTINUOUS
 62
7
 10
-32.722058
 20
-148.799996
 30
0.000000
 11
-33.167706
 21
-148.799996
 31
0.000000
 0
LINE
 8
0
 6
CONTINUOUS
 62
7
 10
-33.167706
 20
-148.799996
 30
0.000000
 11
-33.759855
 21
-148.799996
 31
0.000000
 0
LINE
 8
0
 6
CONTINUOUS
 62
7
 10
-33.759855
 20
-148.799996
 30
0.000000
 11
-34.252449
 21
-148.799996
 31
0.000000
 0
LINE
 8
0
 6
CONTINUOUS
 62
7
 10
-34.252449
 20
-148.799996
 30
0.000000
 11
-39.652448
 21
-148.799996
 31
0.000000
 0
LINE
 8
0
 6
CONTINUOUS
 62
7
 10
-4.102449
 20
-148.999996
 30
0.000000
 11
-0.952449
 21
-148.999996
 31
0.000000
 0
LINE
 8
0
 6
CONTINUOUS
 62
7
 10
-0.952449
 20
-148.999996
 30
0.000000
 11
-0.952449
 21
-148.799996
 31
0.000000
 0
LINE
 8
0
 6
CONTINUOUS
 62
7
 10
-0.952449
 20
-148.799996
 30
0.000000
 11
-72.952448
 21
-148.799996
 31
0.000000
 0
LINE
 8
0
 6
CONTINUOUS
 62
7
 10
-72.952448
 20
-148.999996
 30
0.000000
 11
-69.802448
 21
-148.999996
 31
0.000000
 0
LINE
 8
0
 6
CONTINUOUS
 62
7
 10
-72.952448
 20
-148.799996
 30
0.000000
 11
-72.952448
 21
-148.999996
 31
0.000000
 0
LINE
 8
0
 6
CONTINUOUS
 62
7
 10
-4.102449
 20
-149.999996
 30
0.000000
 11
-4.102449
 21
-148.999996
 31
0.000000
 0
LINE
 8
0
 6
CONTINUOUS
 62
7
 10
-69.802448
 20
-149.999996
 30
0.000000
 11
-4.102449
 21
-149.999996
 31
0.000000
 0
LINE
 8
0
 6
CONTINUOUS
 62
7
 10
-69.802448
 20
-148.999996
 30
0.000000
 11
-69.802448
 21
-149.999996
 31
0.000000
 0
ENDSEC
 0
EOF
