 0
SECTION
 2
HEADER
 0
ENDSEC
 0
SECTION
 2
TABLES
 0
TABLE
 2
LTYPE
 70
1
 0
ENDTAB
 0
TABLE
 2
LAYER
 70
1
 0
LAYER
 2
0
 70
0
 62
7
 6
CONTINUOUS
 0
ENDTAB
 0
TABLE
 2
STYLE
 70
1
 0
STYLE
 2
STANDARD
 70
0
 40
0.500000
 41
1.000000
 50
30.000000
 71
0
 42
0.500000
 3
txt
 4

 0
ENDTAB
 0
ENDSEC
 0
SECTION
 2
ENTITIES
 0
LINE
 8
0
 6
CONTINUOUS
 62
7
 10
-66.507620
 20
106.987967
 30
0.000000
 11
-66.507620
 21
100.987967
 31
0.000000
 0
LINE
 8
0
 6
CONTINUOUS
 62
7
 10
-66.207620
 20
100.687967
 30
0.000000
 11
-66.207620
 21
97.487967
 31
0.000000
 0
LINE
 8
0
 6
CONTINUOUS
 62
7
 10
-66.207620
 20
110.487967
 30
0.000000
 11
-66.207620
 21
107.287967
 31
0.000000
 0
LINE
 8
0
 6
CONTINUOUS
 62
7
 10
-66.207620
 20
107.287967
 30
0.000000
 11
-66.207620
 21
100.687967
 31
0.000000
 0
LINE
 8
0
 6
CONTINUOUS
 62
7
 10
-66.207620
 20
107.287967
 30
0.000000
 11
-66.659749
 21
107.287965
 31
0.000000
 0
LINE
 8
0
 6
CONTINUOUS
 62
7
 10
-66.659749
 20
106.987967
 30
0.000000
 11
-66.507620
 21
106.987967
 31
0.000000
 0
LINE
 8
0
 6
CONTINUOUS
 62
7
 10
-66.659749
 20
100.687965
 30
0.000000
 11
-66.207620
 21
100.687967
 31
0.000000
 0
LINE
 8
0
 6
CONTINUOUS
 62
7
 10
-66.507620
 20
100.987967
 30
0.000000
 11
-66.659749
 21
100.987967
 31
0.000000
 0
LINE
 8
0
 6
CONTINUOUS
 62
7
 10
-66.207620
 20
97.487967
 30
0.000000
 11
-66.659749
 21
97.487967
 31
0.000000
 0
LINE
 8
0
 6
CONTINUOUS
 62
7
 10
-66.659749
 20
100.987967
 30
0.000000
 11
-66.507620
 21
100.987967
 31
0.000000
 0
LINE
 8
0
 6
CONTINUOUS
 62
7
 10
-66.659749
 20
110.487967
 30
0.000000
 11
-66.207620
 21
110.487967
 31
0.000000
 0
LINE
 8
0
 6
CONTINUOUS
 62
7
 10
-66.207620
 20
110.487967
 30
0.000000
 11
-66.207620
 21
107.287967
 31
0.000000
 0
LINE
 8
0
 6
CONTINUOUS
 62
7
 10
-66.207620
 20
107.287967
 30
0.000000
 11
-66.207620
 21
100.687967
 31
0.000000
 0
LINE
 8
0
 6
CONTINUOUS
 62
7
 10
-66.207620
 20
100.687967
 30
0.000000
 11
-66.207620
 21
97.487967
 31
0.000000
 0
LINE
 8
0
 6
CONTINUOUS
 62
7
 10
-138.411878
 20
100.987967
 30
0.000000
 11
-138.411878
 21
106.987967
 31
0.000000
 0
LINE
 8
0
 6
CONTINUOUS
 62
7
 10
-138.711878
 20
97.487967
 30
0.000000
 11
-138.711878
 21
100.687967
 31
0.000000
 0
LINE
 8
0
 6
CONTINUOUS
 62
7
 10
-138.711878
 20
107.287967
 30
0.000000
 11
-138.711878
 21
110.487967
 31
0.000000
 0
LINE
 8
0
 6
CONTINUOUS
 62
7
 10
-138.711878
 20
100.687967
 30
0.000000
 11
-138.711878
 21
107.287967
 31
0.000000
 0
LINE
 8
0
 6
CONTINUOUS
 62
7
 10
-138.259750
 20
107.287965
 30
0.000000
 11
-138.711878
 21
107.287967
 31
0.000000
 0
LINE
 8
0
 6
CONTINUOUS
 62
7
 10
-138.411878
 20
106.987967
 30
0.000000
 11
-138.259750
 21
106.987967
 31
0.000000
 0
LINE
 8
0
 6
CONTINUOUS
 62
7
 10
-138.711878
 20
100.687967
 30
0.000000
 11
-138.259750
 21
100.687965
 31
0.000000
 0
LINE
 8
0
 6
CONTINUOUS
 62
7
 10
-138.259750
 20
100.987967
 30
0.000000
 11
-138.411878
 21
100.987967
 31
0.000000
 0
LINE
 8
0
 6
CONTINUOUS
 62
7
 10
-138.259750
 20
97.487967
 30
0.000000
 11
-138.711878
 21
97.487967
 31
0.000000
 0
LINE
 8
0
 6
CONTINUOUS
 62
7
 10
-138.411878
 20
100.987967
 30
0.000000
 11
-138.259750
 21
100.987967
 31
0.000000
 0
LINE
 8
0
 6
CONTINUOUS
 62
7
 10
-138.711878
 20
110.487967
 30
0.000000
 11
-138.259750
 21
110.487967
 31
0.000000
 0
LINE
 8
0
 6
CONTINUOUS
 62
7
 10
-102.259749
 20
104.037967
 30
0.000000
 11
-102.259749
 21
103.987967
 31
0.000000
 0
LINE
 8
0
 6
CONTINUOUS
 62
7
 10
-102.259749
 20
103.987967
 30
0.000000
 11
-102.209749
 21
103.987967
 31
0.000000
 0
LINE
 8
0
 6
CONTINUOUS
 62
7
 10
-102.209749
 20
103.987967
 30
0.000000
 11
-102.209749
 21
104.037967
 31
0.000000
 0
LINE
 8
0
 6
CONTINUOUS
 62
7
 10
-102.259749
 20
104.037967
 30
0.000000
 11
-102.209749
 21
104.037967
 31
0.000000
 0
LINE
 8
0
 6
CONTINUOUS
 62
7
 10
-66.659749
 20
101.287967
 30
0.000000
 11
-66.659749
 21
97.487967
 31
0.000000
 0
LINE
 8
0
 6
CONTINUOUS
 62
7
 10
-66.659749
 20
110.487967
 30
0.000000
 11
-66.659749
 21
101.287967
 31
0.000000
 0
LINE
 8
0
 6
CONTINUOUS
 62
7
 10
-66.659749
 20
101.287967
 30
0.000000
 11
-66.659749
 21
106.687967
 31
0.000000
 0
LINE
 8
0
 6
CONTINUOUS
 62
7
 10
-66.659749
 20
97.487967
 30
0.000000
 11
-66.659749
 21
97.487967
 31
0.000000
 0
LINE
 8
0
 6
CONTINUOUS
 62
7
 10
-66.659749
 20
110.487967
 30
0.000000
 11
-66.659749
 21
110.487967
 31
0.000000
 0
LINE
 8
0
 6
CONTINUOUS
 62
7
 10
-66.659749
 20
106.687967
 30
0.000000
 11
-66.659749
 21
106.687967
 31
0.000000
 0
LINE
 8
0
 6
CONTINUOUS
 62
7
 10
-134.957106
 20
97.487967
 30
0.000000
 11
-134.957106
 21
110.487967
 31
0.000000
 0
LINE
 8
0
 6
CONTINUOUS
 62
7
 10
-138.259750
 20
110.787967
 30
0.000000
 11
-138.259750
 21
97.187967
 31
0.000000
 0
LINE
 8
0
 6
CONTINUOUS
 62
7
 10
-66.659749
 20
97.187967
 30
0.000000
 11
-66.659749
 21
110.787967
 31
0.000000
 0
LINE
 8
0
 6
CONTINUOUS
 62
7
 10
-66.659749
 20
97.187967
 30
0.000000
 11
-138.259750
 21
97.187967
 31
0.000000
 0
LINE
 8
0
 6
CONTINUOUS
 62
7
 10
-138.259750
 20
110.787967
 30
0.000000
 11
-66.659749
 21
110.787967
 31
0.000000
 0
LINE
 8
0
 6
CONTINUOUS
 62
7
 10
-134.957106
 20
110.487967
 30
0.000000
 11
-134.859750
 21
110.487967
 31
0.000000
 0
LINE
 8
0
 6
CONTINUOUS
 62
7
 10
-134.859750
 20
110.487967
 30
0.000000
 11
-69.959749
 21
110.487967
 31
0.000000
 0
LINE
 8
0
 6
CONTINUOUS
 62
7
 10
-69.959749
 20
110.487967
 30
0.000000
 11
-69.959749
 21
97.487967
 31
0.000000
 0
LINE
 8
0
 6
CONTINUOUS
 62
7
 10
-69.959749
 20
97.487967
 30
0.000000
 11
-134.859748
 21
97.487967
 31
0.000000
 0
LINE
 8
0
 6
CONTINUOUS
 62
7
 10
-134.859748
 20
97.487967
 30
0.000000
 11
-134.957106
 21
97.487967
 31
0.000000
 0
LINE
 8
0
 6
CONTINUOUS
 62
7
 10
-130.752343
 20
105.719254
 30
0.000000
 11
-130.259749
 21
105.787967
 31
0.000000
 0
LINE
 8
0
 6
CONTINUOUS
 62
7
 10
-131.790140
 20
104.935545
 30
0.000000
 11
-131.344492
 21
105.424398
 31
0.000000
 0
LINE
 8
0
 6
CONTINUOUS
 62
7
 10
-131.344492
 20
105.424398
 30
0.000000
 11
-130.752343
 21
105.719254
 31
0.000000
 0
LINE
 8
0
 6
CONTINUOUS
 62
7
 10
-111.859749
 20
102.187967
 30
0.000000
 11
-130.259749
 21
102.187967
 31
0.000000
 0
LINE
 8
0
 6
CONTINUOUS
 62
7
 10
-130.259749
 20
102.187967
 30
0.000000
 11
-130.752343
 21
102.256681
 31
0.000000
 0
LINE
 8
0
 6
CONTINUOUS
 62
7
 10
-130.752343
 20
102.256681
 30
0.000000
 11
-131.344492
 21
102.551536
 31
0.000000
 0
LINE
 8
0
 6
CONTINUOUS
 62
7
 10
-131.344492
 20
102.551536
 30
0.000000
 11
-131.790140
 21
103.040389
 31
0.000000
 0
LINE
 8
0
 6
CONTINUOUS
 62
7
 10
-131.790140
 20
103.040389
 30
0.000000
 11
-132.029101
 21
103.657218
 31
0.000000
 0
LINE
 8
0
 6
CONTINUOUS
 62
7
 10
-132.029101
 20
103.657218
 30
0.000000
 11
-132.029101
 21
104.318716
 31
0.000000
 0
LINE
 8
0
 6
CONTINUOUS
 62
7
 10
-132.029101
 20
104.318716
 30
0.000000
 11
-131.790140
 21
104.935545
 31
0.000000
 0
LINE
 8
0
 6
CONTINUOUS
 62
7
 10
-134.859750
 20
110.487967
 30
0.000000
 11
-134.859750
 21
97.487967
 31
0.000000
 0
LINE
 8
0
 6
CONTINUOUS
 62
7
 10
-111.367156
 20
102.256681
 30
0.000000
 11
-111.859749
 21
102.187967
 31
0.000000
 0
LINE
 8
0
 6
CONTINUOUS
 62
7
 10
-134.859750
 20
97.487967
 30
0.000000
 11
-69.859749
 21
97.487967
 31
0.000000
 0
LINE
 8
0
 6
CONTINUOUS
 62
7
 10
-92.859749
 20
102.187967
 30
0.000000
 11
-93.352342
 21
102.256681
 31
0.000000
 0
LINE
 8
0
 6
CONTINUOUS
 62
7
 10
-93.352342
 20
102.256681
 30
0.000000
 11
-93.944491
 21
102.551536
 31
0.000000
 0
LINE
 8
0
 6
CONTINUOUS
 62
7
 10
-93.944491
 20
102.551536
 30
0.000000
 11
-94.390140
 21
103.040389
 31
0.000000
 0
LINE
 8
0
 6
CONTINUOUS
 62
7
 10
-94.390140
 20
103.040389
 30
0.000000
 11
-94.629101
 21
103.657218
 31
0.000000
 0
LINE
 8
0
 6
CONTINUOUS
 62
7
 10
-94.629101
 20
103.657218
 30
0.000000
 11
-94.629101
 21
104.318716
 31
0.000000
 0
LINE
 8
0
 6
CONTINUOUS
 62
7
 10
-94.629101
 20
104.318716
 30
0.000000
 11
-94.390140
 21
104.935545
 31
0.000000
 0
LINE
 8
0
 6
CONTINUOUS
 62
7
 10
-94.390140
 20
104.935545
 30
0.000000
 11
-93.944491
 21
105.424398
 31
0.000000
 0
LINE
 8
0
 6
CONTINUOUS
 62
7
 10
-93.944491
 20
105.424398
 30
0.000000
 11
-93.352342
 21
105.719254
 31
0.000000
 0
LINE
 8
0
 6
CONTINUOUS
 62
7
 10
-93.352342
 20
105.719254
 30
0.000000
 11
-92.859749
 21
105.787967
 31
0.000000
 0
LINE
 8
0
 6
CONTINUOUS
 62
7
 10
-92.859749
 20
105.787967
 30
0.000000
 11
-74.459749
 21
105.787967
 31
0.000000
 0
LINE
 8
0
 6
CONTINUOUS
 62
7
 10
-74.459749
 20
105.787967
 30
0.000000
 11
-73.967155
 21
105.719254
 31
0.000000
 0
LINE
 8
0
 6
CONTINUOUS
 62
7
 10
-73.967155
 20
105.719254
 30
0.000000
 11
-73.375006
 21
105.424398
 31
0.000000
 0
LINE
 8
0
 6
CONTINUOUS
 62
7
 10
-73.375006
 20
105.424398
 30
0.000000
 11
-72.929358
 21
104.935545
 31
0.000000
 0
LINE
 8
0
 6
CONTINUOUS
 62
7
 10
-72.929358
 20
104.935545
 30
0.000000
 11
-72.690397
 21
104.318716
 31
0.000000
 0
LINE
 8
0
 6
CONTINUOUS
 62
7
 10
-69.859749
 20
97.487967
 30
0.000000
 11
-69.859749
 21
110.487967
 31
0.000000
 0
LINE
 8
0
 6
CONTINUOUS
 62
7
 10
-72.690397
 20
104.318716
 30
0.000000
 11
-72.690397
 21
103.657218
 31
0.000000
 0
LINE
 8
0
 6
CONTINUOUS
 62
7
 10
-72.690397
 20
103.657218
 30
0.000000
 11
-72.929358
 21
103.040389
 31
0.000000
 0
LINE
 8
0
 6
CONTINUOUS
 62
7
 10
-72.929358
 20
103.040389
 30
0.000000
 11
-73.375006
 21
102.551536
 31
0.000000
 0
LINE
 8
0
 6
CONTINUOUS
 62
7
 10
-73.375006
 20
102.551536
 30
0.000000
 11
-73.967155
 21
102.256681
 31
0.000000
 0
LINE
 8
0
 6
CONTINUOUS
 62
7
 10
-73.967155
 20
102.256681
 30
0.000000
 11
-74.459749
 21
102.187967
 31
0.000000
 0
LINE
 8
0
 6
CONTINUOUS
 62
7
 10
-74.459749
 20
102.187967
 30
0.000000
 11
-92.859749
 21
102.187967
 31
0.000000
 0
LINE
 8
0
 6
CONTINUOUS
 62
7
 10
-110.775007
 20
102.551536
 30
0.000000
 11
-111.367156
 21
102.256681
 31
0.000000
 0
LINE
 8
0
 6
CONTINUOUS
 62
7
 10
-105.059749
 20
102.187967
 30
0.000000
 11
-105.552343
 21
102.256681
 31
0.000000
 0
LINE
 8
0
 6
CONTINUOUS
 62
7
 10
-110.329358
 20
103.040389
 30
0.000000
 11
-110.775007
 21
102.551536
 31
0.000000
 0
LINE
 8
0
 6
CONTINUOUS
 62
7
 10
-105.552343
 20
102.256681
 30
0.000000
 11
-106.144492
 21
102.551536
 31
0.000000
 0
LINE
 8
0
 6
CONTINUOUS
 62
7
 10
-110.090398
 20
103.657218
 30
0.000000
 11
-110.329358
 21
103.040389
 31
0.000000
 0
LINE
 8
0
 6
CONTINUOUS
 62
7
 10
-106.144492
 20
102.551536
 30
0.000000
 11
-106.590140
 21
103.040389
 31
0.000000
 0
LINE
 8
0
 6
CONTINUOUS
 62
7
 10
-69.859749
 20
110.487967
 30
0.000000
 11
-134.859750
 21
110.487967
 31
0.000000
 0
LINE
 8
0
 6
CONTINUOUS
 62
7
 10
-111.859749
 20
105.787967
 30
0.000000
 11
-111.367156
 21
105.719254
 31
0.000000
 0
LINE
 8
0
 6
CONTINUOUS
 62
7
 10
-111.367156
 20
105.719254
 30
0.000000
 11
-110.775007
 21
105.424398
 31
0.000000
 0
LINE
 8
0
 6
CONTINUOUS
 62
7
 10
-110.775007
 20
105.424398
 30
0.000000
 11
-110.329358
 21
104.935545
 31
0.000000
 0
LINE
 8
0
 6
CONTINUOUS
 62
7
 10
-110.329358
 20
104.935545
 30
0.000000
 11
-110.090398
 21
104.318716
 31
0.000000
 0
LINE
 8
0
 6
CONTINUOUS
 62
7
 10
-110.090398
 20
104.318716
 30
0.000000
 11
-110.090398
 21
103.657218
 31
0.000000
 0
LINE
 8
0
 6
CONTINUOUS
 62
7
 10
-106.590140
 20
103.040389
 30
0.000000
 11
-106.829101
 21
103.657218
 31
0.000000
 0
LINE
 8
0
 6
CONTINUOUS
 62
7
 10
-99.659749
 20
105.787967
 30
0.000000
 11
-99.167156
 21
105.719254
 31
0.000000
 0
LINE
 8
0
 6
CONTINUOUS
 62
7
 10
-99.167156
 20
105.719254
 30
0.000000
 11
-98.575007
 21
105.424398
 31
0.000000
 0
LINE
 8
0
 6
CONTINUOUS
 62
7
 10
-98.575007
 20
105.424398
 30
0.000000
 11
-98.129358
 21
104.935545
 31
0.000000
 0
LINE
 8
0
 6
CONTINUOUS
 62
7
 10
-98.129358
 20
104.935545
 30
0.000000
 11
-97.890397
 21
104.318716
 31
0.000000
 0
LINE
 8
0
 6
CONTINUOUS
 62
7
 10
-97.890397
 20
104.318716
 30
0.000000
 11
-97.890397
 21
103.657218
 31
0.000000
 0
LINE
 8
0
 6
CONTINUOUS
 62
7
 10
-97.890397
 20
103.657218
 30
0.000000
 11
-98.129358
 21
103.040389
 31
0.000000
 0
LINE
 8
0
 6
CONTINUOUS
 62
7
 10
-98.129358
 20
103.040389
 30
0.000000
 11
-98.575007
 21
102.551536
 31
0.000000
 0
LINE
 8
0
 6
CONTINUOUS
 62
7
 10
-98.575007
 20
102.551536
 30
0.000000
 11
-99.167156
 21
102.256681
 31
0.000000
 0
LINE
 8
0
 6
CONTINUOUS
 62
7
 10
-99.167156
 20
102.256681
 30
0.000000
 11
-99.659749
 21
102.187967
 31
0.000000
 0
LINE
 8
0
 6
CONTINUOUS
 62
7
 10
-99.659749
 20
102.187967
 30
0.000000
 11
-105.059749
 21
102.187967
 31
0.000000
 0
LINE
 8
0
 6
CONTINUOUS
 62
7
 10
-106.829101
 20
103.657218
 30
0.000000
 11
-106.829101
 21
104.318716
 31
0.000000
 0
LINE
 8
0
 6
CONTINUOUS
 62
7
 10
-106.829101
 20
104.318716
 30
0.000000
 11
-106.590140
 21
104.935545
 31
0.000000
 0
LINE
 8
0
 6
CONTINUOUS
 62
7
 10
-106.590140
 20
104.935545
 30
0.000000
 11
-106.144492
 21
105.424398
 31
0.000000
 0
LINE
 8
0
 6
CONTINUOUS
 62
7
 10
-106.144492
 20
105.424398
 30
0.000000
 11
-105.552343
 21
105.719254
 31
0.000000
 0
LINE
 8
0
 6
CONTINUOUS
 62
7
 10
-105.552343
 20
105.719254
 30
0.000000
 11
-105.059749
 21
105.787967
 31
0.000000
 0
LINE
 8
0
 6
CONTINUOUS
 62
7
 10
-130.259749
 20
105.787967
 30
0.000000
 11
-111.859749
 21
105.787967
 31
0.000000
 0
LINE
 8
0
 6
CONTINUOUS
 62
7
 10
-105.059749
 20
105.787967
 30
0.000000
 11
-99.659749
 21
105.787967
 31
0.000000
 0
ENDSEC
 0
EOF
