 0
SECTION
 2
HEADER
 0
ENDSEC
 0
SECTION
 2
TABLES
 0
TABLE
 2
LTYPE
 70
1
 0
ENDTAB
 0
TABLE
 2
LAYER
 70
1
 0
LAYER
 2
0
 70
0
 62
7
 6
CONTINUOUS
 0
ENDTAB
 0
TABLE
 2
STYLE
 70
1
 0
STYLE
 2
STANDARD
 70
0
 40
0.500000
 41
1.000000
 50
30.000000
 71
0
 42
0.500000
 3
txt
 4

 0
ENDTAB
 0
ENDSEC
 0
SECTION
 2
ENTITIES
 0
LINE
 8
0
 6
CONTINUOUS
 62
7
 10
-135.259751
 20
-85.300000
 30
0.000000
 11
-138.059751
 21
-85.300000
 31
0.000000
 0
LINE
 8
0
 6
CONTINUOUS
 62
7
 10
-135.259751
 20
-85.600000
 30
0.000000
 11
-138.059751
 21
-85.600000
 31
0.000000
 0
LINE
 8
0
 6
CONTINUOUS
 62
7
 10
-135.259751
 20
-85.300000
 30
0.000000
 11
-135.259751
 21
-85.600000
 31
0.000000
 0
LINE
 8
0
 6
CONTINUOUS
 62
7
 10
-138.059751
 20
-85.600000
 30
0.000000
 11
-138.059751
 21
-85.300000
 31
0.000000
 0
LINE
 8
0
 6
CONTINUOUS
 62
7
 10
-137.309551
 20
-125.800000
 30
0.000000
 11
-136.409551
 21
-125.800000
 31
0.000000
 0
LINE
 8
0
 6
CONTINUOUS
 62
7
 10
-135.259751
 20
-85.600000
 30
0.000000
 11
-135.259751
 21
-109.133101
 31
0.000000
 0
LINE
 8
0
 6
CONTINUOUS
 62
7
 10
-138.059751
 20
-109.133100
 30
0.000000
 11
-138.059751
 21
-85.600000
 31
0.000000
 0
LINE
 8
0
 6
CONTINUOUS
 62
7
 10
-138.059751
 20
-109.133100
 30
0.000000
 11
-138.059751
 21
-85.600001
 31
0.000000
 0
LINE
 8
0
 6
CONTINUOUS
 62
7
 10
-138.059751
 20
-85.600001
 30
0.000000
 11
-138.059751
 21
-85.300000
 31
0.000000
 0
LINE
 8
0
 6
CONTINUOUS
 62
7
 10
-68.509949
 20
-113.303100
 30
0.000000
 11
-67.609949
 21
-113.303100
 31
0.000000
 0
LINE
 8
0
 6
CONTINUOUS
 62
7
 10
-67.609949
 20
-138.300001
 30
0.000000
 11
-68.509949
 21
-138.300001
 31
0.000000
 0
LINE
 8
0
 6
CONTINUOUS
 62
7
 10
-69.857621
 20
-149.700001
 30
0.000000
 11
-69.857621
 21
-109.133100
 31
0.000000
 0
LINE
 8
0
 6
CONTINUOUS
 62
7
 10
-69.857621
 20
-109.133100
 30
0.000000
 11
-66.207621
 21
-109.133100
 31
0.000000
 0
LINE
 8
0
 6
CONTINUOUS
 62
7
 10
-66.507621
 20
-109.133100
 30
0.000000
 11
-69.857621
 21
-109.133100
 31
0.000000
 0
LINE
 8
0
 6
CONTINUOUS
 62
7
 10
-69.937091
 20
-149.700001
 30
0.000000
 11
-69.937561
 21
-149.700001
 31
0.000000
 0
LINE
 8
0
 6
CONTINUOUS
 62
7
 10
-69.937561
 20
-149.700001
 30
0.000000
 11
-69.961940
 21
-149.700001
 31
0.000000
 0
LINE
 8
0
 6
CONTINUOUS
 62
7
 10
-69.961940
 20
-149.700001
 30
0.000000
 11
-69.978639
 21
-149.700001
 31
0.000000
 0
LINE
 8
0
 6
CONTINUOUS
 62
7
 10
-69.978639
 20
-149.700001
 30
0.000000
 11
-69.987154
 21
-149.700001
 31
0.000000
 0
LINE
 8
0
 6
CONTINUOUS
 62
7
 10
-69.987154
 20
-149.700001
 30
0.000000
 11
-69.987225
 21
-149.700001
 31
0.000000
 0
LINE
 8
0
 6
CONTINUOUS
 62
7
 10
-69.987225
 20
-149.700001
 30
0.000000
 11
-69.978851
 21
-149.700001
 31
0.000000
 0
LINE
 8
0
 6
CONTINUOUS
 62
7
 10
-69.978851
 20
-149.700001
 30
0.000000
 11
-69.962285
 21
-149.700001
 31
0.000000
 0
LINE
 8
0
 6
CONTINUOUS
 62
7
 10
-69.962285
 20
-149.700001
 30
0.000000
 11
-69.938030
 21
-149.700001
 31
0.000000
 0
LINE
 8
0
 6
CONTINUOUS
 62
7
 10
-69.938030
 20
-149.700001
 30
0.000000
 11
-69.906818
 21
-149.700001
 31
0.000000
 0
LINE
 8
0
 6
CONTINUOUS
 62
7
 10
-69.906818
 20
-149.700001
 30
0.000000
 11
-69.869596
 21
-149.700001
 31
0.000000
 0
LINE
 8
0
 6
CONTINUOUS
 62
7
 10
-69.936867
 20
-149.700001
 30
0.000000
 11
-69.937091
 21
-149.700001
 31
0.000000
 0
LINE
 8
0
 6
CONTINUOUS
 62
7
 10
-69.546682
 20
-149.700001
 30
0.000000
 11
-69.547351
 21
-149.700001
 31
0.000000
 0
LINE
 8
0
 6
CONTINUOUS
 62
7
 10
-69.547351
 20
-149.700001
 30
0.000000
 11
-69.589529
 21
-149.700001
 31
0.000000
 0
LINE
 8
0
 6
CONTINUOUS
 62
7
 10
-69.589529
 20
-149.700001
 30
0.000000
 11
-69.635294
 21
-149.700001
 31
0.000000
 0
LINE
 8
0
 6
CONTINUOUS
 62
7
 10
-69.635294
 20
-149.700001
 30
0.000000
 11
-69.683261
 21
-149.700001
 31
0.000000
 0
LINE
 8
0
 6
CONTINUOUS
 62
7
 10
-69.683261
 20
-149.700001
 30
0.000000
 11
-69.731978
 21
-149.700001
 31
0.000000
 0
LINE
 8
0
 6
CONTINUOUS
 62
7
 10
-69.731978
 20
-149.700001
 30
0.000000
 11
-69.779970
 21
-149.700001
 31
0.000000
 0
LINE
 8
0
 6
CONTINUOUS
 62
7
 10
-69.779970
 20
-149.700001
 30
0.000000
 11
-69.825783
 21
-149.700001
 31
0.000000
 0
LINE
 8
0
 6
CONTINUOUS
 62
7
 10
-69.825783
 20
-149.700001
 30
0.000000
 11
-69.868032
 21
-149.700001
 31
0.000000
 0
LINE
 8
0
 6
CONTINUOUS
 62
7
 10
-69.868032
 20
-149.700001
 30
0.000000
 11
-69.905438
 21
-149.700001
 31
0.000000
 0
LINE
 8
0
 6
CONTINUOUS
 62
7
 10
-69.905438
 20
-149.700001
 30
0.000000
 11
-69.936867
 21
-149.700001
 31
0.000000
 0
LINE
 8
0
 6
CONTINUOUS
 62
7
 10
-66.845646
 20
-149.700001
 30
0.000000
 11
-69.546682
 21
-149.700001
 31
0.000000
 0
LINE
 8
0
 6
CONTINUOUS
 62
7
 10
-67.168559
 20
-149.700001
 30
0.000000
 11
-67.167890
 21
-149.700001
 31
0.000000
 0
LINE
 8
0
 6
CONTINUOUS
 62
7
 10
-67.167890
 20
-149.700001
 30
0.000000
 11
-67.125712
 21
-149.700001
 31
0.000000
 0
LINE
 8
0
 6
CONTINUOUS
 62
7
 10
-67.125712
 20
-149.700001
 30
0.000000
 11
-67.079947
 21
-149.700001
 31
0.000000
 0
LINE
 8
0
 6
CONTINUOUS
 62
7
 10
-67.079947
 20
-149.700001
 30
0.000000
 11
-67.031980
 21
-149.700001
 31
0.000000
 0
LINE
 8
0
 6
CONTINUOUS
 62
7
 10
-67.031980
 20
-149.700001
 30
0.000000
 11
-66.983264
 21
-149.700001
 31
0.000000
 0
LINE
 8
0
 6
CONTINUOUS
 62
7
 10
-66.983264
 20
-149.700001
 30
0.000000
 11
-66.935272
 21
-149.700001
 31
0.000000
 0
LINE
 8
0
 6
CONTINUOUS
 62
7
 10
-66.935272
 20
-149.700001
 30
0.000000
 11
-66.889458
 21
-149.700001
 31
0.000000
 0
LINE
 8
0
 6
CONTINUOUS
 62
7
 10
-66.889458
 20
-149.700001
 30
0.000000
 11
-66.847209
 21
-149.700001
 31
0.000000
 0
LINE
 8
0
 6
CONTINUOUS
 62
7
 10
-66.847209
 20
-149.700001
 30
0.000000
 11
-66.809804
 21
-149.700001
 31
0.000000
 0
LINE
 8
0
 6
CONTINUOUS
 62
7
 10
-66.809804
 20
-149.700001
 30
0.000000
 11
-66.778374
 21
-149.700001
 31
0.000000
 0
LINE
 8
0
 6
CONTINUOUS
 62
7
 10
-69.869596
 20
-149.700001
 30
0.000000
 11
-67.168559
 21
-149.700001
 31
0.000000
 0
LINE
 8
0
 6
CONTINUOUS
 62
7
 10
-66.778151
 20
-149.700001
 30
0.000000
 11
-66.777680
 21
-149.700001
 31
0.000000
 0
LINE
 8
0
 6
CONTINUOUS
 62
7
 10
-66.777680
 20
-149.700001
 30
0.000000
 11
-66.753301
 21
-149.700001
 31
0.000000
 0
LINE
 8
0
 6
CONTINUOUS
 62
7
 10
-66.753301
 20
-149.700001
 30
0.000000
 11
-66.736602
 21
-149.700001
 31
0.000000
 0
LINE
 8
0
 6
CONTINUOUS
 62
7
 10
-66.736602
 20
-149.700001
 30
0.000000
 11
-66.728088
 21
-149.700001
 31
0.000000
 0
LINE
 8
0
 6
CONTINUOUS
 62
7
 10
-66.728088
 20
-149.700001
 30
0.000000
 11
-66.728017
 21
-149.700001
 31
0.000000
 0
LINE
 8
0
 6
CONTINUOUS
 62
7
 10
-66.728017
 20
-149.700001
 30
0.000000
 11
-66.736391
 21
-149.700001
 31
0.000000
 0
LINE
 8
0
 6
CONTINUOUS
 62
7
 10
-66.736391
 20
-149.700001
 30
0.000000
 11
-66.752956
 21
-149.700001
 31
0.000000
 0
LINE
 8
0
 6
CONTINUOUS
 62
7
 10
-66.752956
 20
-149.700001
 30
0.000000
 11
-66.777212
 21
-149.700001
 31
0.000000
 0
LINE
 8
0
 6
CONTINUOUS
 62
7
 10
-66.777212
 20
-149.700001
 30
0.000000
 11
-66.808423
 21
-149.700001
 31
0.000000
 0
LINE
 8
0
 6
CONTINUOUS
 62
7
 10
-66.808423
 20
-149.700001
 30
0.000000
 11
-66.845646
 21
-149.700001
 31
0.000000
 0
LINE
 8
0
 6
CONTINUOUS
 62
7
 10
-66.778374
 20
-149.700001
 30
0.000000
 11
-66.778151
 21
-149.700001
 31
0.000000
 0
LINE
 8
0
 6
CONTINUOUS
 62
7
 10
-66.207621
 20
-149.700001
 30
0.000000
 11
-70.507621
 21
-149.700001
 31
0.000000
 0
LINE
 8
0
 6
CONTINUOUS
 62
7
 10
-70.507621
 20
-150.000001
 30
0.000000
 11
-70.507621
 21
-149.700001
 31
0.000000
 0
LINE
 8
0
 6
CONTINUOUS
 62
7
 10
-66.207621
 20
-149.700001
 30
0.000000
 11
-66.207621
 21
-150.000001
 31
0.000000
 0
LINE
 8
0
 6
CONTINUOUS
 62
7
 10
-66.207621
 20
-109.133100
 30
0.000000
 11
-66.207621
 21
-149.700001
 31
0.000000
 0
LINE
 8
0
 6
CONTINUOUS
 62
7
 10
-69.857621
 20
-150.000001
 30
0.000000
 11
-70.507621
 21
-150.000001
 31
0.000000
 0
LINE
 8
0
 6
CONTINUOUS
 62
7
 10
-66.207621
 20
-150.000001
 30
0.000000
 11
-70.507621
 21
-150.000001
 31
0.000000
 0
LINE
 8
0
 6
CONTINUOUS
 62
7
 10
-66.507621
 20
-150.000001
 30
0.000000
 11
-69.857621
 21
-150.000001
 31
0.000000
 0
LINE
 8
0
 6
CONTINUOUS
 62
7
 10
-67.609949
 20
-113.303100
 30
0.000000
 11
-67.609949
 21
-115.797332
 31
0.000000
 0
LINE
 8
0
 6
CONTINUOUS
 62
7
 10
-67.609949
 20
-116.802768
 30
0.000000
 11
-67.609949
 21
-120.698603
 31
0.000000
 0
LINE
 8
0
 6
CONTINUOUS
 62
7
 10
-67.609949
 20
-121.703193
 30
0.000000
 11
-67.609949
 21
-138.300001
 31
0.000000
 0
LINE
 8
0
 6
CONTINUOUS
 62
7
 10
-68.509949
 20
-138.300001
 30
0.000000
 11
-68.509949
 21
-121.703193
 31
0.000000
 0
LINE
 8
0
 6
CONTINUOUS
 62
7
 10
-68.509949
 20
-120.698604
 30
0.000000
 11
-68.509949
 21
-116.801921
 31
0.000000
 0
LINE
 8
0
 6
CONTINUOUS
 62
7
 10
-68.509949
 20
-115.798178
 30
0.000000
 11
-68.509949
 21
-113.303100
 31
0.000000
 0
LINE
 8
0
 6
CONTINUOUS
 62
7
 10
-66.207621
 20
-149.700001
 30
0.000000
 11
-66.728017
 21
-149.700001
 31
0.000000
 0
LINE
 8
0
 6
CONTINUOUS
 62
7
 10
-66.728017
 20
-149.700001
 30
0.000000
 11
-69.857621
 21
-149.700001
 31
0.000000
 0
LINE
 8
0
 6
CONTINUOUS
 62
7
 10
-70.507621
 20
-149.700001
 30
0.000000
 11
-69.987225
 21
-149.700001
 31
0.000000
 0
LINE
 8
0
 6
CONTINUOUS
 62
7
 10
-69.987225
 20
-149.700001
 30
0.000000
 11
-69.857621
 21
-149.700001
 31
0.000000
 0
LINE
 8
0
 6
CONTINUOUS
 62
7
 10
-69.857621
 20
-149.700001
 30
0.000000
 11
-69.987225
 21
-149.700001
 31
0.000000
 0
LINE
 8
0
 6
CONTINUOUS
 62
7
 10
-69.987225
 20
-149.700001
 30
0.000000
 11
-70.507621
 21
-149.700001
 31
0.000000
 0
LINE
 8
0
 6
CONTINUOUS
 62
7
 10
-70.507621
 20
-150.000001
 30
0.000000
 11
-69.987225
 21
-150.000001
 31
0.000000
 0
LINE
 8
0
 6
CONTINUOUS
 62
7
 10
-69.987225
 20
-150.000001
 30
0.000000
 11
-66.507621
 21
-150.000001
 31
0.000000
 0
LINE
 8
0
 6
CONTINUOUS
 62
7
 10
-137.309551
 20
-113.303100
 30
0.000000
 11
-136.409551
 21
-113.303100
 31
0.000000
 0
LINE
 8
0
 6
CONTINUOUS
 62
7
 10
-136.409551
 20
-138.300001
 30
0.000000
 11
-137.309551
 21
-138.300001
 31
0.000000
 0
LINE
 8
0
 6
CONTINUOUS
 62
7
 10
-138.711879
 20
-109.133100
 30
0.000000
 11
-135.061879
 21
-109.133100
 31
0.000000
 0
LINE
 8
0
 6
CONTINUOUS
 62
7
 10
-135.061879
 20
-109.133100
 30
0.000000
 11
-138.411879
 21
-109.133100
 31
0.000000
 0
LINE
 8
0
 6
CONTINUOUS
 62
7
 10
-134.981939
 20
-149.700001
 30
0.000000
 11
-134.982409
 21
-149.700001
 31
0.000000
 0
LINE
 8
0
 6
CONTINUOUS
 62
7
 10
-134.957560
 20
-149.700001
 30
0.000000
 11
-134.981939
 21
-149.700001
 31
0.000000
 0
LINE
 8
0
 6
CONTINUOUS
 62
7
 10
-134.940861
 20
-149.700001
 30
0.000000
 11
-134.957560
 21
-149.700001
 31
0.000000
 0
LINE
 8
0
 6
CONTINUOUS
 62
7
 10
-134.932347
 20
-149.700001
 30
0.000000
 11
-134.940861
 21
-149.700001
 31
0.000000
 0
LINE
 8
0
 6
CONTINUOUS
 62
7
 10
-134.932276
 20
-149.700001
 30
0.000000
 11
-134.932347
 21
-149.700001
 31
0.000000
 0
LINE
 8
0
 6
CONTINUOUS
 62
7
 10
-134.940649
 20
-149.700001
 30
0.000000
 11
-134.932276
 21
-149.700001
 31
0.000000
 0
LINE
 8
0
 6
CONTINUOUS
 62
7
 10
-134.957215
 20
-149.700001
 30
0.000000
 11
-134.940649
 21
-149.700001
 31
0.000000
 0
LINE
 8
0
 6
CONTINUOUS
 62
7
 10
-134.981471
 20
-149.700001
 30
0.000000
 11
-134.957215
 21
-149.700001
 31
0.000000
 0
LINE
 8
0
 6
CONTINUOUS
 62
7
 10
-135.012682
 20
-149.700001
 30
0.000000
 11
-134.981471
 21
-149.700001
 31
0.000000
 0
LINE
 8
0
 6
CONTINUOUS
 62
7
 10
-135.049904
 20
-149.700001
 30
0.000000
 11
-135.012682
 21
-149.700001
 31
0.000000
 0
LINE
 8
0
 6
CONTINUOUS
 62
7
 10
-134.982409
 20
-149.700001
 30
0.000000
 11
-134.982633
 21
-149.700001
 31
0.000000
 0
LINE
 8
0
 6
CONTINUOUS
 62
7
 10
-135.372149
 20
-149.700001
 30
0.000000
 11
-135.372818
 21
-149.700001
 31
0.000000
 0
LINE
 8
0
 6
CONTINUOUS
 62
7
 10
-135.329971
 20
-149.700001
 30
0.000000
 11
-135.372149
 21
-149.700001
 31
0.000000
 0
LINE
 8
0
 6
CONTINUOUS
 62
7
 10
-135.284206
 20
-149.700001
 30
0.000000
 11
-135.329971
 21
-149.700001
 31
0.000000
 0
LINE
 8
0
 6
CONTINUOUS
 62
7
 10
-135.236239
 20
-149.700001
 30
0.000000
 11
-135.284206
 21
-149.700001
 31
0.000000
 0
LINE
 8
0
 6
CONTINUOUS
 62
7
 10
-135.187522
 20
-149.700001
 30
0.000000
 11
-135.236239
 21
-149.700001
 31
0.000000
 0
LINE
 8
0
 6
CONTINUOUS
 62
7
 10
-135.139531
 20
-149.700001
 30
0.000000
 11
-135.187522
 21
-149.700001
 31
0.000000
 0
LINE
 8
0
 6
CONTINUOUS
 62
7
 10
-135.093717
 20
-149.700001
 30
0.000000
 11
-135.139531
 21
-149.700001
 31
0.000000
 0
LINE
 8
0
 6
CONTINUOUS
 62
7
 10
-135.051468
 20
-149.700001
 30
0.000000
 11
-135.093717
 21
-149.700001
 31
0.000000
 0
LINE
 8
0
 6
CONTINUOUS
 62
7
 10
-135.014062
 20
-149.700001
 30
0.000000
 11
-135.051468
 21
-149.700001
 31
0.000000
 0
LINE
 8
0
 6
CONTINUOUS
 62
7
 10
-134.982633
 20
-149.700001
 30
0.000000
 11
-135.014062
 21
-149.700001
 31
0.000000
 0
LINE
 8
0
 6
CONTINUOUS
 62
7
 10
-135.372818
 20
-149.700001
 30
0.000000
 11
-138.073854
 21
-149.700001
 31
0.000000
 0
LINE
 8
0
 6
CONTINUOUS
 62
7
 10
-137.751610
 20
-149.700001
 30
0.000000
 11
-137.750941
 21
-149.700001
 31
0.000000
 0
LINE
 8
0
 6
CONTINUOUS
 62
7
 10
-137.793788
 20
-149.700001
 30
0.000000
 11
-137.751610
 21
-149.700001
 31
0.000000
 0
LINE
 8
0
 6
CONTINUOUS
 62
7
 10
-137.839553
 20
-149.700001
 30
0.000000
 11
-137.793788
 21
-149.700001
 31
0.000000
 0
LINE
 8
0
 6
CONTINUOUS
 62
7
 10
-137.887520
 20
-149.700001
 30
0.000000
 11
-137.839553
 21
-149.700001
 31
0.000000
 0
LINE
 8
0
 6
CONTINUOUS
 62
7
 10
-137.936237
 20
-149.700001
 30
0.000000
 11
-137.887520
 21
-149.700001
 31
0.000000
 0
LINE
 8
0
 6
CONTINUOUS
 62
7
 10
-137.984228
 20
-149.700001
 30
0.000000
 11
-137.936237
 21
-149.700001
 31
0.000000
 0
LINE
 8
0
 6
CONTINUOUS
 62
7
 10
-138.030042
 20
-149.700001
 30
0.000000
 11
-137.984228
 21
-149.700001
 31
0.000000
 0
LINE
 8
0
 6
CONTINUOUS
 62
7
 10
-138.072291
 20
-149.700001
 30
0.000000
 11
-138.030042
 21
-149.700001
 31
0.000000
 0
LINE
 8
0
 6
CONTINUOUS
 62
7
 10
-138.109696
 20
-149.700001
 30
0.000000
 11
-138.072291
 21
-149.700001
 31
0.000000
 0
LINE
 8
0
 6
CONTINUOUS
 62
7
 10
-138.141126
 20
-149.700001
 30
0.000000
 11
-138.109696
 21
-149.700001
 31
0.000000
 0
LINE
 8
0
 6
CONTINUOUS
 62
7
 10
-137.750941
 20
-149.700001
 30
0.000000
 11
-135.049904
 21
-149.700001
 31
0.000000
 0
LINE
 8
0
 6
CONTINUOUS
 62
7
 10
-138.141820
 20
-149.700001
 30
0.000000
 11
-138.141350
 21
-149.700001
 31
0.000000
 0
LINE
 8
0
 6
CONTINUOUS
 62
7
 10
-138.166199
 20
-149.700001
 30
0.000000
 11
-138.141820
 21
-149.700001
 31
0.000000
 0
LINE
 8
0
 6
CONTINUOUS
 62
7
 10
-138.182898
 20
-149.700001
 30
0.000000
 11
-138.166199
 21
-149.700001
 31
0.000000
 0
LINE
 8
0
 6
CONTINUOUS
 62
7
 10
-138.191412
 20
-149.700001
 30
0.000000
 11
-138.182898
 21
-149.700001
 31
0.000000
 0
LINE
 8
0
 6
CONTINUOUS
 62
7
 10
-138.191483
 20
-149.700001
 30
0.000000
 11
-138.191412
 21
-149.700001
 31
0.000000
 0
LINE
 8
0
 6
CONTINUOUS
 62
7
 10
-138.183109
 20
-149.700001
 30
0.000000
 11
-138.191483
 21
-149.700001
 31
0.000000
 0
LINE
 8
0
 6
CONTINUOUS
 62
7
 10
-138.166544
 20
-149.700001
 30
0.000000
 11
-138.183109
 21
-149.700001
 31
0.000000
 0
LINE
 8
0
 6
CONTINUOUS
 62
7
 10
-138.142288
 20
-149.700001
 30
0.000000
 11
-138.166544
 21
-149.700001
 31
0.000000
 0
LINE
 8
0
 6
CONTINUOUS
 62
7
 10
-138.111077
 20
-149.700001
 30
0.000000
 11
-138.142288
 21
-149.700001
 31
0.000000
 0
LINE
 8
0
 6
CONTINUOUS
 62
7
 10
-138.073854
 20
-149.700001
 30
0.000000
 11
-138.111077
 21
-149.700001
 31
0.000000
 0
LINE
 8
0
 6
CONTINUOUS
 62
7
 10
-138.141350
 20
-149.700001
 30
0.000000
 11
-138.141126
 21
-149.700001
 31
0.000000
 0
LINE
 8
0
 6
CONTINUOUS
 62
7
 10
-134.411879
 20
-149.700001
 30
0.000000
 11
-138.711879
 21
-149.700001
 31
0.000000
 0
LINE
 8
0
 6
CONTINUOUS
 62
7
 10
-134.411879
 20
-149.700001
 30
0.000000
 11
-134.411879
 21
-150.000001
 31
0.000000
 0
LINE
 8
0
 6
CONTINUOUS
 62
7
 10
-138.711879
 20
-150.000001
 30
0.000000
 11
-138.711879
 21
-149.700001
 31
0.000000
 0
LINE
 8
0
 6
CONTINUOUS
 62
7
 10
-138.711879
 20
-149.700001
 30
0.000000
 11
-138.711879
 21
-109.133100
 31
0.000000
 0
LINE
 8
0
 6
CONTINUOUS
 62
7
 10
-134.411879
 20
-150.000001
 30
0.000000
 11
-135.061879
 21
-150.000001
 31
0.000000
 0
LINE
 8
0
 6
CONTINUOUS
 62
7
 10
-134.411879
 20
-150.000001
 30
0.000000
 11
-138.711879
 21
-150.000001
 31
0.000000
 0
LINE
 8
0
 6
CONTINUOUS
 62
7
 10
-135.061879
 20
-150.000001
 30
0.000000
 11
-138.411879
 21
-150.000001
 31
0.000000
 0
LINE
 8
0
 6
CONTINUOUS
 62
7
 10
-137.309551
 20
-138.300001
 30
0.000000
 11
-137.309551
 21
-121.703193
 31
0.000000
 0
LINE
 8
0
 6
CONTINUOUS
 62
7
 10
-137.309551
 20
-120.698604
 30
0.000000
 11
-137.309551
 21
-116.802767
 31
0.000000
 0
LINE
 8
0
 6
CONTINUOUS
 62
7
 10
-137.309551
 20
-115.797332
 30
0.000000
 11
-137.309551
 21
-113.303100
 31
0.000000
 0
LINE
 8
0
 6
CONTINUOUS
 62
7
 10
-136.409551
 20
-113.303100
 30
0.000000
 11
-136.409551
 21
-115.798178
 31
0.000000
 0
LINE
 8
0
 6
CONTINUOUS
 62
7
 10
-136.409551
 20
-116.801921
 30
0.000000
 11
-136.409551
 21
-120.698603
 31
0.000000
 0
LINE
 8
0
 6
CONTINUOUS
 62
7
 10
-136.409551
 20
-121.703193
 30
0.000000
 11
-136.409551
 21
-138.300001
 31
0.000000
 0
LINE
 8
0
 6
CONTINUOUS
 62
7
 10
-135.061879
 20
-109.133100
 30
0.000000
 11
-135.061879
 21
-149.700001
 31
0.000000
 0
LINE
 8
0
 6
CONTINUOUS
 62
7
 10
-135.061879
 20
-149.700001
 30
0.000000
 11
-138.191483
 21
-149.700001
 31
0.000000
 0
LINE
 8
0
 6
CONTINUOUS
 62
7
 10
-138.191483
 20
-149.700001
 30
0.000000
 11
-138.711879
 21
-149.700001
 31
0.000000
 0
LINE
 8
0
 6
CONTINUOUS
 62
7
 10
-135.061879
 20
-149.700001
 30
0.000000
 11
-134.932276
 21
-149.700001
 31
0.000000
 0
LINE
 8
0
 6
CONTINUOUS
 62
7
 10
-134.932276
 20
-149.700001
 30
0.000000
 11
-134.411879
 21
-149.700001
 31
0.000000
 0
LINE
 8
0
 6
CONTINUOUS
 62
7
 10
-134.411879
 20
-149.700001
 30
0.000000
 11
-134.932276
 21
-149.700001
 31
0.000000
 0
LINE
 8
0
 6
CONTINUOUS
 62
7
 10
-134.932276
 20
-149.700001
 30
0.000000
 11
-135.061879
 21
-149.700001
 31
0.000000
 0
LINE
 8
0
 6
CONTINUOUS
 62
7
 10
-138.411879
 20
-150.000001
 30
0.000000
 11
-134.932276
 21
-150.000001
 31
0.000000
 0
LINE
 8
0
 6
CONTINUOUS
 62
7
 10
-134.932276
 20
-150.000001
 30
0.000000
 11
-134.411879
 21
-150.000001
 31
0.000000
 0
LINE
 8
0
 6
CONTINUOUS
 62
7
 10
-137.179002
 20
-116.058996
 30
0.000000
 11
-137.217861
 21
-116.121754
 31
0.000000
 0
LINE
 8
0
 6
CONTINUOUS
 62
7
 10
-137.129273
 20
-116.004446
 30
0.000000
 11
-137.179002
 21
-116.058996
 31
0.000000
 0
LINE
 8
0
 6
CONTINUOUS
 62
7
 10
-137.070368
 20
-115.959963
 30
0.000000
 11
-137.129273
 21
-116.004446
 31
0.000000
 0
LINE
 8
0
 6
CONTINUOUS
 62
7
 10
-137.217861
 20
-116.121754
 30
0.000000
 11
-137.244525
 21
-116.190584
 31
0.000000
 0
LINE
 8
0
 6
CONTINUOUS
 62
7
 10
-137.244525
 20
-116.190584
 30
0.000000
 11
-137.258089
 21
-116.263142
 31
0.000000
 0
LINE
 8
0
 6
CONTINUOUS
 62
7
 10
-137.258089
 20
-116.263142
 30
0.000000
 11
-137.258089
 21
-116.336957
 31
0.000000
 0
LINE
 8
0
 6
CONTINUOUS
 62
7
 10
-137.258089
 20
-116.336957
 30
0.000000
 11
-137.244525
 21
-116.409515
 31
0.000000
 0
LINE
 8
0
 6
CONTINUOUS
 62
7
 10
-137.244525
 20
-116.409515
 30
0.000000
 11
-137.217861
 21
-116.478345
 31
0.000000
 0
LINE
 8
0
 6
CONTINUOUS
 62
7
 10
-137.217861
 20
-116.478345
 30
0.000000
 11
-137.179002
 21
-116.541103
 31
0.000000
 0
LINE
 8
0
 6
CONTINUOUS
 62
7
 10
-137.179002
 20
-116.541103
 30
0.000000
 11
-137.129273
 21
-116.595653
 31
0.000000
 0
LINE
 8
0
 6
CONTINUOUS
 62
7
 10
-137.129273
 20
-116.595653
 30
0.000000
 11
-137.070368
 21
-116.640136
 31
0.000000
 0
LINE
 8
0
 6
CONTINUOUS
 62
7
 10
-137.070368
 20
-116.640136
 30
0.000000
 11
-137.004292
 21
-116.673039
 31
0.000000
 0
LINE
 8
0
 6
CONTINUOUS
 62
7
 10
-137.004292
 20
-116.673039
 30
0.000000
 11
-136.933295
 21
-116.693239
 31
0.000000
 0
LINE
 8
0
 6
CONTINUOUS
 62
7
 10
-136.933295
 20
-116.693239
 30
0.000000
 11
-136.859795
 21
-116.700050
 31
0.000000
 0
LINE
 8
0
 6
CONTINUOUS
 62
7
 10
-136.859795
 20
-116.700050
 30
0.000000
 11
-136.786295
 21
-116.693239
 31
0.000000
 0
LINE
 8
0
 6
CONTINUOUS
 62
7
 10
-136.786295
 20
-116.693239
 30
0.000000
 11
-136.715299
 21
-116.673039
 31
0.000000
 0
LINE
 8
0
 6
CONTINUOUS
 62
7
 10
-136.715299
 20
-116.673039
 30
0.000000
 11
-136.649222
 21
-116.640136
 31
0.000000
 0
LINE
 8
0
 6
CONTINUOUS
 62
7
 10
-136.649222
 20
-116.640136
 30
0.000000
 11
-136.590317
 21
-116.595653
 31
0.000000
 0
LINE
 8
0
 6
CONTINUOUS
 62
7
 10
-136.590317
 20
-116.595653
 30
0.000000
 11
-136.540588
 21
-116.541103
 31
0.000000
 0
LINE
 8
0
 6
CONTINUOUS
 62
7
 10
-136.540588
 20
-116.541103
 30
0.000000
 11
-136.501730
 21
-116.478345
 31
0.000000
 0
LINE
 8
0
 6
CONTINUOUS
 62
7
 10
-136.501730
 20
-116.478345
 30
0.000000
 11
-136.475065
 21
-116.409515
 31
0.000000
 0
LINE
 8
0
 6
CONTINUOUS
 62
7
 10
-136.475065
 20
-116.409515
 30
0.000000
 11
-136.461502
 21
-116.336957
 31
0.000000
 0
LINE
 8
0
 6
CONTINUOUS
 62
7
 10
-136.461502
 20
-116.336957
 30
0.000000
 11
-136.461502
 21
-116.263142
 31
0.000000
 0
LINE
 8
0
 6
CONTINUOUS
 62
7
 10
-136.461502
 20
-116.263142
 30
0.000000
 11
-136.475065
 21
-116.190584
 31
0.000000
 0
LINE
 8
0
 6
CONTINUOUS
 62
7
 10
-136.475065
 20
-116.190584
 30
0.000000
 11
-136.501730
 21
-116.121754
 31
0.000000
 0
LINE
 8
0
 6
CONTINUOUS
 62
7
 10
-136.501730
 20
-116.121754
 30
0.000000
 11
-136.540588
 21
-116.058996
 31
0.000000
 0
LINE
 8
0
 6
CONTINUOUS
 62
7
 10
-137.004292
 20
-115.927061
 30
0.000000
 11
-137.070368
 21
-115.959963
 31
0.000000
 0
LINE
 8
0
 6
CONTINUOUS
 62
7
 10
-136.933295
 20
-115.906860
 30
0.000000
 11
-137.004292
 21
-115.927061
 31
0.000000
 0
LINE
 8
0
 6
CONTINUOUS
 62
7
 10
-136.859795
 20
-115.900050
 30
0.000000
 11
-136.933295
 21
-115.906860
 31
0.000000
 0
LINE
 8
0
 6
CONTINUOUS
 62
7
 10
-136.786295
 20
-115.906860
 30
0.000000
 11
-136.859795
 21
-115.900050
 31
0.000000
 0
LINE
 8
0
 6
CONTINUOUS
 62
7
 10
-136.715299
 20
-115.927061
 30
0.000000
 11
-136.786295
 21
-115.906860
 31
0.000000
 0
LINE
 8
0
 6
CONTINUOUS
 62
7
 10
-136.649222
 20
-115.959963
 30
0.000000
 11
-136.715299
 21
-115.927061
 31
0.000000
 0
LINE
 8
0
 6
CONTINUOUS
 62
7
 10
-136.590317
 20
-116.004446
 30
0.000000
 11
-136.649222
 21
-115.959963
 31
0.000000
 0
LINE
 8
0
 6
CONTINUOUS
 62
7
 10
-136.540588
 20
-116.058996
 30
0.000000
 11
-136.590317
 21
-116.004446
 31
0.000000
 0
LINE
 8
0
 6
CONTINUOUS
 62
7
 10
-136.859795
 20
-116.700065
 30
0.000000
 11
-136.933296
 21
-116.693254
 31
0.000000
 0
LINE
 8
0
 6
CONTINUOUS
 62
7
 10
-136.933296
 20
-116.693254
 30
0.000000
 11
-137.004295
 21
-116.673053
 31
0.000000
 0
LINE
 8
0
 6
CONTINUOUS
 62
7
 10
-137.004295
 20
-116.673053
 30
0.000000
 11
-137.070372
 21
-116.640150
 31
0.000000
 0
LINE
 8
0
 6
CONTINUOUS
 62
7
 10
-137.070372
 20
-116.640150
 30
0.000000
 11
-137.129279
 21
-116.595666
 31
0.000000
 0
LINE
 8
0
 6
CONTINUOUS
 62
7
 10
-137.129279
 20
-116.595666
 30
0.000000
 11
-137.179008
 21
-116.541116
 31
0.000000
 0
LINE
 8
0
 6
CONTINUOUS
 62
7
 10
-137.179008
 20
-116.541116
 30
0.000000
 11
-137.217867
 21
-116.478356
 31
0.000000
 0
LINE
 8
0
 6
CONTINUOUS
 62
7
 10
-137.217867
 20
-116.478356
 30
0.000000
 11
-137.244533
 21
-116.409524
 31
0.000000
 0
LINE
 8
0
 6
CONTINUOUS
 62
7
 10
-137.244533
 20
-116.409524
 30
0.000000
 11
-137.258096
 21
-116.336965
 31
0.000000
 0
LINE
 8
0
 6
CONTINUOUS
 62
7
 10
-137.258096
 20
-116.336965
 30
0.000000
 11
-137.258096
 21
-116.263149
 31
0.000000
 0
LINE
 8
0
 6
CONTINUOUS
 62
7
 10
-137.258096
 20
-116.263149
 30
0.000000
 11
-137.244533
 21
-116.190590
 31
0.000000
 0
LINE
 8
0
 6
CONTINUOUS
 62
7
 10
-137.244533
 20
-116.190590
 30
0.000000
 11
-137.217867
 21
-116.121758
 31
0.000000
 0
LINE
 8
0
 6
CONTINUOUS
 62
7
 10
-137.229795
 20
-115.659191
 30
0.000000
 11
-137.599795
 21
-116.300050
 31
0.000000
 0
LINE
 8
0
 6
CONTINUOUS
 62
7
 10
-137.217867
 20
-116.121758
 30
0.000000
 11
-137.179008
 21
-116.058999
 31
0.000000
 0
LINE
 8
0
 6
CONTINUOUS
 62
7
 10
-137.179008
 20
-116.058999
 30
0.000000
 11
-137.129279
 21
-116.004448
 31
0.000000
 0
LINE
 8
0
 6
CONTINUOUS
 62
7
 10
-137.129279
 20
-116.004448
 30
0.000000
 11
-137.070372
 21
-115.959964
 31
0.000000
 0
LINE
 8
0
 6
CONTINUOUS
 62
7
 10
-136.489795
 20
-115.659191
 30
0.000000
 11
-137.229795
 21
-115.659191
 31
0.000000
 0
LINE
 8
0
 6
CONTINUOUS
 62
7
 10
-136.649218
 20
-115.959964
 30
0.000000
 11
-136.590312
 21
-116.004448
 31
0.000000
 0
LINE
 8
0
 6
CONTINUOUS
 62
7
 10
-136.590312
 20
-116.004448
 30
0.000000
 11
-136.540582
 21
-116.058999
 31
0.000000
 0
LINE
 8
0
 6
CONTINUOUS
 62
7
 10
-136.540582
 20
-116.058999
 30
0.000000
 11
-136.501723
 21
-116.121758
 31
0.000000
 0
LINE
 8
0
 6
CONTINUOUS
 62
7
 10
-136.119795
 20
-116.300050
 30
0.000000
 11
-136.489795
 21
-115.659191
 31
0.000000
 0
LINE
 8
0
 6
CONTINUOUS
 62
7
 10
-136.501723
 20
-116.121758
 30
0.000000
 11
-136.475058
 21
-116.190590
 31
0.000000
 0
LINE
 8
0
 6
CONTINUOUS
 62
7
 10
-136.475058
 20
-116.190590
 30
0.000000
 11
-136.461494
 21
-116.263149
 31
0.000000
 0
LINE
 8
0
 6
CONTINUOUS
 62
7
 10
-136.461494
 20
-116.263149
 30
0.000000
 11
-136.461494
 21
-116.336965
 31
0.000000
 0
LINE
 8
0
 6
CONTINUOUS
 62
7
 10
-136.461494
 20
-116.336965
 30
0.000000
 11
-136.475058
 21
-116.409524
 31
0.000000
 0
LINE
 8
0
 6
CONTINUOUS
 62
7
 10
-136.475058
 20
-116.409524
 30
0.000000
 11
-136.501723
 21
-116.478356
 31
0.000000
 0
LINE
 8
0
 6
CONTINUOUS
 62
7
 10
-136.501723
 20
-116.478356
 30
0.000000
 11
-136.540582
 21
-116.541116
 31
0.000000
 0
LINE
 8
0
 6
CONTINUOUS
 62
7
 10
-136.540582
 20
-116.541116
 30
0.000000
 11
-136.590312
 21
-116.595666
 31
0.000000
 0
LINE
 8
0
 6
CONTINUOUS
 62
7
 10
-136.590312
 20
-116.595666
 30
0.000000
 11
-136.649218
 21
-116.640150
 31
0.000000
 0
LINE
 8
0
 6
CONTINUOUS
 62
7
 10
-136.649218
 20
-116.640150
 30
0.000000
 11
-136.715296
 21
-116.673053
 31
0.000000
 0
LINE
 8
0
 6
CONTINUOUS
 62
7
 10
-136.715296
 20
-116.673053
 30
0.000000
 11
-136.786294
 21
-116.693254
 31
0.000000
 0
LINE
 8
0
 6
CONTINUOUS
 62
7
 10
-136.786294
 20
-116.693254
 30
0.000000
 11
-136.859795
 21
-116.700065
 31
0.000000
 0
LINE
 8
0
 6
CONTINUOUS
 62
7
 10
-137.229795
 20
-116.940908
 30
0.000000
 11
-136.489795
 21
-116.940908
 31
0.000000
 0
LINE
 8
0
 6
CONTINUOUS
 62
7
 10
-137.599795
 20
-116.300050
 30
0.000000
 11
-137.229795
 21
-116.940908
 31
0.000000
 0
LINE
 8
0
 6
CONTINUOUS
 62
7
 10
-136.489795
 20
-116.940908
 30
0.000000
 11
-136.119795
 21
-116.300050
 31
0.000000
 0
LINE
 8
0
 6
CONTINUOUS
 62
7
 10
-136.841381
 20
-115.901756
 30
0.000000
 11
-136.804710
 21
-115.905154
 31
0.000000
 0
LINE
 8
0
 6
CONTINUOUS
 62
7
 10
-68.378912
 20
-116.058996
 30
0.000000
 11
-68.417770
 21
-116.121754
 31
0.000000
 0
LINE
 8
0
 6
CONTINUOUS
 62
7
 10
-68.329183
 20
-116.004446
 30
0.000000
 11
-68.378912
 21
-116.058996
 31
0.000000
 0
LINE
 8
0
 6
CONTINUOUS
 62
7
 10
-68.270278
 20
-115.959963
 30
0.000000
 11
-68.329183
 21
-116.004446
 31
0.000000
 0
LINE
 8
0
 6
CONTINUOUS
 62
7
 10
-68.417770
 20
-116.121754
 30
0.000000
 11
-68.444435
 21
-116.190584
 31
0.000000
 0
LINE
 8
0
 6
CONTINUOUS
 62
7
 10
-68.444435
 20
-116.190584
 30
0.000000
 11
-68.457999
 21
-116.263142
 31
0.000000
 0
LINE
 8
0
 6
CONTINUOUS
 62
7
 10
-68.457999
 20
-116.263142
 30
0.000000
 11
-68.457999
 21
-116.336957
 31
0.000000
 0
LINE
 8
0
 6
CONTINUOUS
 62
7
 10
-68.457999
 20
-116.336957
 30
0.000000
 11
-68.444435
 21
-116.409515
 31
0.000000
 0
LINE
 8
0
 6
CONTINUOUS
 62
7
 10
-68.444435
 20
-116.409515
 30
0.000000
 11
-68.417770
 21
-116.478345
 31
0.000000
 0
LINE
 8
0
 6
CONTINUOUS
 62
7
 10
-68.417770
 20
-116.478345
 30
0.000000
 11
-68.378912
 21
-116.541103
 31
0.000000
 0
LINE
 8
0
 6
CONTINUOUS
 62
7
 10
-68.378912
 20
-116.541103
 30
0.000000
 11
-68.329183
 21
-116.595653
 31
0.000000
 0
LINE
 8
0
 6
CONTINUOUS
 62
7
 10
-68.329183
 20
-116.595653
 30
0.000000
 11
-68.270278
 21
-116.640136
 31
0.000000
 0
LINE
 8
0
 6
CONTINUOUS
 62
7
 10
-68.270278
 20
-116.640136
 30
0.000000
 11
-68.204202
 21
-116.673039
 31
0.000000
 0
LINE
 8
0
 6
CONTINUOUS
 62
7
 10
-68.204202
 20
-116.673039
 30
0.000000
 11
-68.133205
 21
-116.693239
 31
0.000000
 0
LINE
 8
0
 6
CONTINUOUS
 62
7
 10
-68.133205
 20
-116.693239
 30
0.000000
 11
-68.059705
 21
-116.700050
 31
0.000000
 0
LINE
 8
0
 6
CONTINUOUS
 62
7
 10
-68.059705
 20
-116.700050
 30
0.000000
 11
-67.986205
 21
-116.693239
 31
0.000000
 0
LINE
 8
0
 6
CONTINUOUS
 62
7
 10
-67.986205
 20
-116.693239
 30
0.000000
 11
-67.915208
 21
-116.673039
 31
0.000000
 0
LINE
 8
0
 6
CONTINUOUS
 62
7
 10
-67.915208
 20
-116.673039
 30
0.000000
 11
-67.849132
 21
-116.640136
 31
0.000000
 0
LINE
 8
0
 6
CONTINUOUS
 62
7
 10
-67.849132
 20
-116.640136
 30
0.000000
 11
-67.790227
 21
-116.595653
 31
0.000000
 0
LINE
 8
0
 6
CONTINUOUS
 62
7
 10
-67.790227
 20
-116.595653
 30
0.000000
 11
-67.740498
 21
-116.541103
 31
0.000000
 0
LINE
 8
0
 6
CONTINUOUS
 62
7
 10
-67.740498
 20
-116.541103
 30
0.000000
 11
-67.701640
 21
-116.478345
 31
0.000000
 0
LINE
 8
0
 6
CONTINUOUS
 62
7
 10
-67.701640
 20
-116.478345
 30
0.000000
 11
-67.674975
 21
-116.409515
 31
0.000000
 0
LINE
 8
0
 6
CONTINUOUS
 62
7
 10
-67.674975
 20
-116.409515
 30
0.000000
 11
-67.661411
 21
-116.336957
 31
0.000000
 0
LINE
 8
0
 6
CONTINUOUS
 62
7
 10
-67.661411
 20
-116.336957
 30
0.000000
 11
-67.661411
 21
-116.263142
 31
0.000000
 0
LINE
 8
0
 6
CONTINUOUS
 62
7
 10
-67.661411
 20
-116.263142
 30
0.000000
 11
-67.674975
 21
-116.190584
 31
0.000000
 0
LINE
 8
0
 6
CONTINUOUS
 62
7
 10
-67.674975
 20
-116.190584
 30
0.000000
 11
-67.701640
 21
-116.121754
 31
0.000000
 0
LINE
 8
0
 6
CONTINUOUS
 62
7
 10
-67.701640
 20
-116.121754
 30
0.000000
 11
-67.740498
 21
-116.058996
 31
0.000000
 0
LINE
 8
0
 6
CONTINUOUS
 62
7
 10
-68.204202
 20
-115.927061
 30
0.000000
 11
-68.270278
 21
-115.959963
 31
0.000000
 0
LINE
 8
0
 6
CONTINUOUS
 62
7
 10
-68.133205
 20
-115.906860
 30
0.000000
 11
-68.204202
 21
-115.927061
 31
0.000000
 0
LINE
 8
0
 6
CONTINUOUS
 62
7
 10
-68.059705
 20
-115.900050
 30
0.000000
 11
-68.133205
 21
-115.906860
 31
0.000000
 0
LINE
 8
0
 6
CONTINUOUS
 62
7
 10
-67.986205
 20
-115.906860
 30
0.000000
 11
-68.059705
 21
-115.900050
 31
0.000000
 0
LINE
 8
0
 6
CONTINUOUS
 62
7
 10
-67.915208
 20
-115.927061
 30
0.000000
 11
-67.986205
 21
-115.906860
 31
0.000000
 0
LINE
 8
0
 6
CONTINUOUS
 62
7
 10
-67.849132
 20
-115.959963
 30
0.000000
 11
-67.915208
 21
-115.927061
 31
0.000000
 0
LINE
 8
0
 6
CONTINUOUS
 62
7
 10
-67.790227
 20
-116.004446
 30
0.000000
 11
-67.849132
 21
-115.959963
 31
0.000000
 0
LINE
 8
0
 6
CONTINUOUS
 62
7
 10
-67.740498
 20
-116.058996
 30
0.000000
 11
-67.790227
 21
-116.004446
 31
0.000000
 0
LINE
 8
0
 6
CONTINUOUS
 62
7
 10
-68.059705
 20
-116.700065
 30
0.000000
 11
-68.133206
 21
-116.693254
 31
0.000000
 0
LINE
 8
0
 6
CONTINUOUS
 62
7
 10
-68.133206
 20
-116.693254
 30
0.000000
 11
-68.204204
 21
-116.673053
 31
0.000000
 0
LINE
 8
0
 6
CONTINUOUS
 62
7
 10
-68.204204
 20
-116.673053
 30
0.000000
 11
-68.270282
 21
-116.640150
 31
0.000000
 0
LINE
 8
0
 6
CONTINUOUS
 62
7
 10
-68.270282
 20
-116.640150
 30
0.000000
 11
-68.329188
 21
-116.595666
 31
0.000000
 0
LINE
 8
0
 6
CONTINUOUS
 62
7
 10
-68.329188
 20
-116.595666
 30
0.000000
 11
-68.378918
 21
-116.541116
 31
0.000000
 0
LINE
 8
0
 6
CONTINUOUS
 62
7
 10
-68.378918
 20
-116.541116
 30
0.000000
 11
-68.417777
 21
-116.478356
 31
0.000000
 0
LINE
 8
0
 6
CONTINUOUS
 62
7
 10
-68.417777
 20
-116.478356
 30
0.000000
 11
-68.444442
 21
-116.409524
 31
0.000000
 0
LINE
 8
0
 6
CONTINUOUS
 62
7
 10
-68.444442
 20
-116.409524
 30
0.000000
 11
-68.458006
 21
-116.336965
 31
0.000000
 0
LINE
 8
0
 6
CONTINUOUS
 62
7
 10
-68.458006
 20
-116.336965
 30
0.000000
 11
-68.458006
 21
-116.263149
 31
0.000000
 0
LINE
 8
0
 6
CONTINUOUS
 62
7
 10
-68.458006
 20
-116.263149
 30
0.000000
 11
-68.444442
 21
-116.190590
 31
0.000000
 0
LINE
 8
0
 6
CONTINUOUS
 62
7
 10
-68.444442
 20
-116.190590
 30
0.000000
 11
-68.417777
 21
-116.121758
 31
0.000000
 0
LINE
 8
0
 6
CONTINUOUS
 62
7
 10
-68.429705
 20
-115.659191
 30
0.000000
 11
-68.799705
 21
-116.300050
 31
0.000000
 0
LINE
 8
0
 6
CONTINUOUS
 62
7
 10
-68.417777
 20
-116.121758
 30
0.000000
 11
-68.378918
 21
-116.058999
 31
0.000000
 0
LINE
 8
0
 6
CONTINUOUS
 62
7
 10
-68.378918
 20
-116.058999
 30
0.000000
 11
-68.329188
 21
-116.004448
 31
0.000000
 0
LINE
 8
0
 6
CONTINUOUS
 62
7
 10
-68.329188
 20
-116.004448
 30
0.000000
 11
-68.270282
 21
-115.959964
 31
0.000000
 0
LINE
 8
0
 6
CONTINUOUS
 62
7
 10
-67.689705
 20
-115.659191
 30
0.000000
 11
-68.429705
 21
-115.659191
 31
0.000000
 0
LINE
 8
0
 6
CONTINUOUS
 62
7
 10
-67.849128
 20
-115.959964
 30
0.000000
 11
-67.790222
 21
-116.004448
 31
0.000000
 0
LINE
 8
0
 6
CONTINUOUS
 62
7
 10
-67.790222
 20
-116.004448
 30
0.000000
 11
-67.740492
 21
-116.058999
 31
0.000000
 0
LINE
 8
0
 6
CONTINUOUS
 62
7
 10
-67.740492
 20
-116.058999
 30
0.000000
 11
-67.701633
 21
-116.121758
 31
0.000000
 0
LINE
 8
0
 6
CONTINUOUS
 62
7
 10
-67.319705
 20
-116.300050
 30
0.000000
 11
-67.689705
 21
-115.659191
 31
0.000000
 0
LINE
 8
0
 6
CONTINUOUS
 62
7
 10
-67.701633
 20
-116.121758
 30
0.000000
 11
-67.674967
 21
-116.190590
 31
0.000000
 0
LINE
 8
0
 6
CONTINUOUS
 62
7
 10
-67.674967
 20
-116.190590
 30
0.000000
 11
-67.661404
 21
-116.263149
 31
0.000000
 0
LINE
 8
0
 6
CONTINUOUS
 62
7
 10
-67.661404
 20
-116.263149
 30
0.000000
 11
-67.661404
 21
-116.336965
 31
0.000000
 0
LINE
 8
0
 6
CONTINUOUS
 62
7
 10
-67.661404
 20
-116.336965
 30
0.000000
 11
-67.674967
 21
-116.409524
 31
0.000000
 0
LINE
 8
0
 6
CONTINUOUS
 62
7
 10
-67.674967
 20
-116.409524
 30
0.000000
 11
-67.701633
 21
-116.478356
 31
0.000000
 0
LINE
 8
0
 6
CONTINUOUS
 62
7
 10
-67.701633
 20
-116.478356
 30
0.000000
 11
-67.740492
 21
-116.541116
 31
0.000000
 0
LINE
 8
0
 6
CONTINUOUS
 62
7
 10
-67.740492
 20
-116.541116
 30
0.000000
 11
-67.790222
 21
-116.595666
 31
0.000000
 0
LINE
 8
0
 6
CONTINUOUS
 62
7
 10
-67.790222
 20
-116.595666
 30
0.000000
 11
-67.849128
 21
-116.640150
 31
0.000000
 0
LINE
 8
0
 6
CONTINUOUS
 62
7
 10
-67.849128
 20
-116.640150
 30
0.000000
 11
-67.915206
 21
-116.673053
 31
0.000000
 0
LINE
 8
0
 6
CONTINUOUS
 62
7
 10
-67.915206
 20
-116.673053
 30
0.000000
 11
-67.986204
 21
-116.693254
 31
0.000000
 0
LINE
 8
0
 6
CONTINUOUS
 62
7
 10
-67.986204
 20
-116.693254
 30
0.000000
 11
-68.059705
 21
-116.700065
 31
0.000000
 0
LINE
 8
0
 6
CONTINUOUS
 62
7
 10
-68.429705
 20
-116.940908
 30
0.000000
 11
-67.689705
 21
-116.940908
 31
0.000000
 0
LINE
 8
0
 6
CONTINUOUS
 62
7
 10
-68.799705
 20
-116.300050
 30
0.000000
 11
-68.429705
 21
-116.940908
 31
0.000000
 0
LINE
 8
0
 6
CONTINUOUS
 62
7
 10
-67.689705
 20
-116.940908
 30
0.000000
 11
-67.319705
 21
-116.300050
 31
0.000000
 0
LINE
 8
0
 6
CONTINUOUS
 62
7
 10
-68.114791
 20
-115.905154
 30
0.000000
 11
-68.078119
 21
-115.901756
 31
0.000000
 0
LINE
 8
0
 6
CONTINUOUS
 62
7
 10
-102.259750
 20
-150.000001
 30
0.000000
 11
-102.209750
 21
-150.000001
 31
0.000000
 0
LINE
 8
0
 6
CONTINUOUS
 62
7
 10
-102.259750
 20
-150.000001
 30
0.000000
 11
-102.259750
 21
-149.950001
 31
0.000000
 0
LINE
 8
0
 6
CONTINUOUS
 62
7
 10
-102.259750
 20
-149.950001
 30
0.000000
 11
-102.209750
 21
-149.950001
 31
0.000000
 0
LINE
 8
0
 6
CONTINUOUS
 62
7
 10
-102.209750
 20
-150.000001
 30
0.000000
 11
-102.209750
 21
-149.950001
 31
0.000000
 0
LINE
 8
0
 6
CONTINUOUS
 62
7
 10
-68.379156
 20
-120.959844
 30
0.000000
 11
-68.418015
 21
-121.022603
 31
0.000000
 0
LINE
 8
0
 6
CONTINUOUS
 62
7
 10
-68.329428
 20
-120.905295
 30
0.000000
 11
-68.379156
 21
-120.959844
 31
0.000000
 0
LINE
 8
0
 6
CONTINUOUS
 62
7
 10
-68.270522
 20
-120.860811
 30
0.000000
 11
-68.329428
 21
-120.905295
 31
0.000000
 0
LINE
 8
0
 6
CONTINUOUS
 62
7
 10
-68.418015
 20
-121.022603
 30
0.000000
 11
-68.444680
 21
-121.091433
 31
0.000000
 0
LINE
 8
0
 6
CONTINUOUS
 62
7
 10
-68.444680
 20
-121.091433
 30
0.000000
 11
-68.458243
 21
-121.163991
 31
0.000000
 0
LINE
 8
0
 6
CONTINUOUS
 62
7
 10
-68.458243
 20
-121.163991
 30
0.000000
 11
-68.458243
 21
-121.237806
 31
0.000000
 0
LINE
 8
0
 6
CONTINUOUS
 62
7
 10
-68.458243
 20
-121.237806
 30
0.000000
 11
-68.444680
 21
-121.310364
 31
0.000000
 0
LINE
 8
0
 6
CONTINUOUS
 62
7
 10
-68.444680
 20
-121.310364
 30
0.000000
 11
-68.418015
 21
-121.379194
 31
0.000000
 0
LINE
 8
0
 6
CONTINUOUS
 62
7
 10
-68.418015
 20
-121.379194
 30
0.000000
 11
-68.379156
 21
-121.441952
 31
0.000000
 0
LINE
 8
0
 6
CONTINUOUS
 62
7
 10
-68.379156
 20
-121.441952
 30
0.000000
 11
-68.329428
 21
-121.496502
 31
0.000000
 0
LINE
 8
0
 6
CONTINUOUS
 62
7
 10
-68.329428
 20
-121.496502
 30
0.000000
 11
-68.270522
 21
-121.540985
 31
0.000000
 0
LINE
 8
0
 6
CONTINUOUS
 62
7
 10
-68.270522
 20
-121.540985
 30
0.000000
 11
-68.204446
 21
-121.573887
 31
0.000000
 0
LINE
 8
0
 6
CONTINUOUS
 62
7
 10
-68.204446
 20
-121.573887
 30
0.000000
 11
-68.133449
 21
-121.594088
 31
0.000000
 0
LINE
 8
0
 6
CONTINUOUS
 62
7
 10
-68.133449
 20
-121.594088
 30
0.000000
 11
-68.059949
 21
-121.600898
 31
0.000000
 0
LINE
 8
0
 6
CONTINUOUS
 62
7
 10
-68.059949
 20
-121.600898
 30
0.000000
 11
-67.986450
 21
-121.594088
 31
0.000000
 0
LINE
 8
0
 6
CONTINUOUS
 62
7
 10
-67.986450
 20
-121.594088
 30
0.000000
 11
-67.915453
 21
-121.573887
 31
0.000000
 0
LINE
 8
0
 6
CONTINUOUS
 62
7
 10
-67.915453
 20
-121.573887
 30
0.000000
 11
-67.849377
 21
-121.540985
 31
0.000000
 0
LINE
 8
0
 6
CONTINUOUS
 62
7
 10
-67.849377
 20
-121.540985
 30
0.000000
 11
-67.790471
 21
-121.496502
 31
0.000000
 0
LINE
 8
0
 6
CONTINUOUS
 62
7
 10
-67.790471
 20
-121.496502
 30
0.000000
 11
-67.740742
 21
-121.441952
 31
0.000000
 0
LINE
 8
0
 6
CONTINUOUS
 62
7
 10
-67.740742
 20
-121.441952
 30
0.000000
 11
-67.701884
 21
-121.379194
 31
0.000000
 0
LINE
 8
0
 6
CONTINUOUS
 62
7
 10
-67.701884
 20
-121.379194
 30
0.000000
 11
-67.675219
 21
-121.310364
 31
0.000000
 0
LINE
 8
0
 6
CONTINUOUS
 62
7
 10
-67.675219
 20
-121.310364
 30
0.000000
 11
-67.661656
 21
-121.237806
 31
0.000000
 0
LINE
 8
0
 6
CONTINUOUS
 62
7
 10
-67.661656
 20
-121.237806
 30
0.000000
 11
-67.661656
 21
-121.163991
 31
0.000000
 0
LINE
 8
0
 6
CONTINUOUS
 62
7
 10
-67.661656
 20
-121.163991
 30
0.000000
 11
-67.675219
 21
-121.091433
 31
0.000000
 0
LINE
 8
0
 6
CONTINUOUS
 62
7
 10
-67.675219
 20
-121.091433
 30
0.000000
 11
-67.701884
 21
-121.022603
 31
0.000000
 0
LINE
 8
0
 6
CONTINUOUS
 62
7
 10
-67.701884
 20
-121.022603
 30
0.000000
 11
-67.740742
 21
-120.959844
 31
0.000000
 0
LINE
 8
0
 6
CONTINUOUS
 62
7
 10
-68.204446
 20
-120.827909
 30
0.000000
 11
-68.270522
 21
-120.860811
 31
0.000000
 0
LINE
 8
0
 6
CONTINUOUS
 62
7
 10
-68.133449
 20
-120.807709
 30
0.000000
 11
-68.204446
 21
-120.827909
 31
0.000000
 0
LINE
 8
0
 6
CONTINUOUS
 62
7
 10
-68.059949
 20
-120.800898
 30
0.000000
 11
-68.133449
 21
-120.807709
 31
0.000000
 0
LINE
 8
0
 6
CONTINUOUS
 62
7
 10
-67.986450
 20
-120.807709
 30
0.000000
 11
-68.059949
 21
-120.800898
 31
0.000000
 0
LINE
 8
0
 6
CONTINUOUS
 62
7
 10
-67.915453
 20
-120.827909
 30
0.000000
 11
-67.986450
 21
-120.807709
 31
0.000000
 0
LINE
 8
0
 6
CONTINUOUS
 62
7
 10
-67.849377
 20
-120.860811
 30
0.000000
 11
-67.915453
 21
-120.827909
 31
0.000000
 0
LINE
 8
0
 6
CONTINUOUS
 62
7
 10
-67.790471
 20
-120.905295
 30
0.000000
 11
-67.849377
 21
-120.860811
 31
0.000000
 0
LINE
 8
0
 6
CONTINUOUS
 62
7
 10
-67.740742
 20
-120.959844
 30
0.000000
 11
-67.790471
 21
-120.905295
 31
0.000000
 0
LINE
 8
0
 6
CONTINUOUS
 62
7
 10
-68.059949
 20
-121.600913
 30
0.000000
 11
-68.133451
 21
-121.594102
 31
0.000000
 0
LINE
 8
0
 6
CONTINUOUS
 62
7
 10
-68.133451
 20
-121.594102
 30
0.000000
 11
-68.204449
 21
-121.573902
 31
0.000000
 0
LINE
 8
0
 6
CONTINUOUS
 62
7
 10
-68.204449
 20
-121.573902
 30
0.000000
 11
-68.270526
 21
-121.540999
 31
0.000000
 0
LINE
 8
0
 6
CONTINUOUS
 62
7
 10
-68.270526
 20
-121.540999
 30
0.000000
 11
-68.329433
 21
-121.496515
 31
0.000000
 0
LINE
 8
0
 6
CONTINUOUS
 62
7
 10
-68.329433
 20
-121.496515
 30
0.000000
 11
-68.379162
 21
-121.441964
 31
0.000000
 0
LINE
 8
0
 6
CONTINUOUS
 62
7
 10
-68.379162
 20
-121.441964
 30
0.000000
 11
-68.418021
 21
-121.379205
 31
0.000000
 0
LINE
 8
0
 6
CONTINUOUS
 62
7
 10
-68.418021
 20
-121.379205
 30
0.000000
 11
-68.444687
 21
-121.310373
 31
0.000000
 0
LINE
 8
0
 6
CONTINUOUS
 62
7
 10
-68.444687
 20
-121.310373
 30
0.000000
 11
-68.458251
 21
-121.237814
 31
0.000000
 0
LINE
 8
0
 6
CONTINUOUS
 62
7
 10
-68.458251
 20
-121.237814
 30
0.000000
 11
-68.458251
 21
-121.163998
 31
0.000000
 0
LINE
 8
0
 6
CONTINUOUS
 62
7
 10
-68.458251
 20
-121.163998
 30
0.000000
 11
-68.444687
 21
-121.091439
 31
0.000000
 0
LINE
 8
0
 6
CONTINUOUS
 62
7
 10
-68.444687
 20
-121.091439
 30
0.000000
 11
-68.418021
 21
-121.022607
 31
0.000000
 0
LINE
 8
0
 6
CONTINUOUS
 62
7
 10
-68.429949
 20
-120.560040
 30
0.000000
 11
-68.799949
 21
-121.200898
 31
0.000000
 0
LINE
 8
0
 6
CONTINUOUS
 62
7
 10
-68.418021
 20
-121.022607
 30
0.000000
 11
-68.379162
 21
-120.959847
 31
0.000000
 0
LINE
 8
0
 6
CONTINUOUS
 62
7
 10
-68.379162
 20
-120.959847
 30
0.000000
 11
-68.329433
 21
-120.905297
 31
0.000000
 0
LINE
 8
0
 6
CONTINUOUS
 62
7
 10
-68.329433
 20
-120.905297
 30
0.000000
 11
-68.270526
 21
-120.860813
 31
0.000000
 0
LINE
 8
0
 6
CONTINUOUS
 62
7
 10
-67.689949
 20
-120.560040
 30
0.000000
 11
-68.429949
 21
-120.560040
 31
0.000000
 0
LINE
 8
0
 6
CONTINUOUS
 62
7
 10
-67.849373
 20
-120.860813
 30
0.000000
 11
-67.790466
 21
-120.905297
 31
0.000000
 0
LINE
 8
0
 6
CONTINUOUS
 62
7
 10
-67.790466
 20
-120.905297
 30
0.000000
 11
-67.740736
 21
-120.959847
 31
0.000000
 0
LINE
 8
0
 6
CONTINUOUS
 62
7
 10
-67.740736
 20
-120.959847
 30
0.000000
 11
-67.701877
 21
-121.022607
 31
0.000000
 0
LINE
 8
0
 6
CONTINUOUS
 62
7
 10
-67.319949
 20
-121.200898
 30
0.000000
 11
-67.689949
 21
-120.560040
 31
0.000000
 0
LINE
 8
0
 6
CONTINUOUS
 62
7
 10
-67.701877
 20
-121.022607
 30
0.000000
 11
-67.675212
 21
-121.091439
 31
0.000000
 0
LINE
 8
0
 6
CONTINUOUS
 62
7
 10
-67.675212
 20
-121.091439
 30
0.000000
 11
-67.661648
 21
-121.163998
 31
0.000000
 0
LINE
 8
0
 6
CONTINUOUS
 62
7
 10
-67.661648
 20
-121.163998
 30
0.000000
 11
-67.661648
 21
-121.237814
 31
0.000000
 0
LINE
 8
0
 6
CONTINUOUS
 62
7
 10
-67.661648
 20
-121.237814
 30
0.000000
 11
-67.675212
 21
-121.310373
 31
0.000000
 0
LINE
 8
0
 6
CONTINUOUS
 62
7
 10
-67.675212
 20
-121.310373
 30
0.000000
 11
-67.701877
 21
-121.379205
 31
0.000000
 0
LINE
 8
0
 6
CONTINUOUS
 62
7
 10
-67.701877
 20
-121.379205
 30
0.000000
 11
-67.740736
 21
-121.441964
 31
0.000000
 0
LINE
 8
0
 6
CONTINUOUS
 62
7
 10
-67.740736
 20
-121.441964
 30
0.000000
 11
-67.790466
 21
-121.496515
 31
0.000000
 0
LINE
 8
0
 6
CONTINUOUS
 62
7
 10
-67.790466
 20
-121.496515
 30
0.000000
 11
-67.849373
 21
-121.540999
 31
0.000000
 0
LINE
 8
0
 6
CONTINUOUS
 62
7
 10
-67.849373
 20
-121.540999
 30
0.000000
 11
-67.915450
 21
-121.573902
 31
0.000000
 0
LINE
 8
0
 6
CONTINUOUS
 62
7
 10
-67.915450
 20
-121.573902
 30
0.000000
 11
-67.986448
 21
-121.594102
 31
0.000000
 0
LINE
 8
0
 6
CONTINUOUS
 62
7
 10
-67.986448
 20
-121.594102
 30
0.000000
 11
-68.059949
 21
-121.600913
 31
0.000000
 0
LINE
 8
0
 6
CONTINUOUS
 62
7
 10
-68.429949
 20
-121.841757
 30
0.000000
 11
-67.689949
 21
-121.841757
 31
0.000000
 0
LINE
 8
0
 6
CONTINUOUS
 62
7
 10
-68.799949
 20
-121.200898
 30
0.000000
 11
-68.429949
 21
-121.841757
 31
0.000000
 0
LINE
 8
0
 6
CONTINUOUS
 62
7
 10
-67.689949
 20
-121.841757
 30
0.000000
 11
-67.319949
 21
-121.200898
 31
0.000000
 0
LINE
 8
0
 6
CONTINUOUS
 62
7
 10
-66.659749
 20
-85.300000
 30
0.000000
 11
-69.459749
 21
-85.300000
 31
0.000000
 0
LINE
 8
0
 6
CONTINUOUS
 62
7
 10
-66.659749
 20
-85.600000
 30
0.000000
 11
-69.459749
 21
-85.600000
 31
0.000000
 0
LINE
 8
0
 6
CONTINUOUS
 62
7
 10
-69.459749
 20
-85.600000
 30
0.000000
 11
-69.459749
 21
-85.300000
 31
0.000000
 0
LINE
 8
0
 6
CONTINUOUS
 62
7
 10
-66.659749
 20
-85.300000
 30
0.000000
 11
-66.659749
 21
-85.600000
 31
0.000000
 0
LINE
 8
0
 6
CONTINUOUS
 62
7
 10
-68.509949
 20
-125.800000
 30
0.000000
 11
-67.609949
 21
-125.800000
 31
0.000000
 0
LINE
 8
0
 6
CONTINUOUS
 62
7
 10
-69.459749
 20
-109.133100
 30
0.000000
 11
-69.459749
 21
-85.600000
 31
0.000000
 0
LINE
 8
0
 6
CONTINUOUS
 62
7
 10
-66.659749
 20
-85.600000
 30
0.000000
 11
-66.659749
 21
-109.133101
 31
0.000000
 0
LINE
 8
0
 6
CONTINUOUS
 62
7
 10
-66.659749
 20
-109.133100
 30
0.000000
 11
-66.659749
 21
-85.599999
 31
0.000000
 0
LINE
 8
0
 6
CONTINUOUS
 62
7
 10
-66.659749
 20
-85.599999
 30
0.000000
 11
-66.659749
 21
-85.300475
 31
0.000000
 0
LINE
 8
0
 6
CONTINUOUS
 62
7
 10
-66.659749
 20
-85.600000
 30
0.000000
 11
-66.659749
 21
-109.133100
 31
0.000000
 0
LINE
 8
0
 6
CONTINUOUS
 62
7
 10
-69.659749
 20
-85.300000
 30
0.000000
 11
-66.659749
 21
-85.300000
 31
0.000000
 0
LINE
 8
0
 6
CONTINUOUS
 62
7
 10
-66.659749
 20
-85.300000
 30
0.000000
 11
-66.659749
 21
-85.000000
 31
0.000000
 0
LINE
 8
0
 6
CONTINUOUS
 62
7
 10
-66.659749
 20
-85.000000
 30
0.000000
 11
-138.259751
 21
-85.000000
 31
0.000000
 0
LINE
 8
0
 6
CONTINUOUS
 62
7
 10
-138.259751
 20
-85.300000
 30
0.000000
 11
-135.259751
 21
-85.300000
 31
0.000000
 0
LINE
 8
0
 6
CONTINUOUS
 62
7
 10
-138.259751
 20
-85.000000
 30
0.000000
 11
-138.259751
 21
-85.300000
 31
0.000000
 0
LINE
 8
0
 6
CONTINUOUS
 62
7
 10
-69.659749
 20
-86.832644
 30
0.000000
 11
-69.659749
 21
-85.300000
 31
0.000000
 0
LINE
 8
0
 6
CONTINUOUS
 62
7
 10
-135.259751
 20
-86.832644
 30
0.000000
 11
-69.659749
 21
-86.832644
 31
0.000000
 0
LINE
 8
0
 6
CONTINUOUS
 62
7
 10
-135.259751
 20
-85.300000
 30
0.000000
 11
-135.259751
 21
-86.832644
 31
0.000000
 0
LINE
 8
0
 6
CONTINUOUS
 62
7
 10
-69.959749
 20
-85.000000
 30
0.000000
 11
-134.859750
 21
-85.000000
 31
0.000000
 0
LINE
 8
0
 6
CONTINUOUS
 62
7
 10
-134.859750
 20
-85.000000
 30
0.000000
 11
-134.957107
 21
-85.000000
 31
0.000000
 0
LINE
 8
0
 6
CONTINUOUS
 62
7
 10
-137.178758
 20
-120.959844
 30
0.000000
 11
-137.217616
 21
-121.022603
 31
0.000000
 0
LINE
 8
0
 6
CONTINUOUS
 62
7
 10
-137.129029
 20
-120.905295
 30
0.000000
 11
-137.178758
 21
-120.959844
 31
0.000000
 0
LINE
 8
0
 6
CONTINUOUS
 62
7
 10
-137.070124
 20
-120.860811
 30
0.000000
 11
-137.129029
 21
-120.905295
 31
0.000000
 0
LINE
 8
0
 6
CONTINUOUS
 62
7
 10
-137.217616
 20
-121.022603
 30
0.000000
 11
-137.244281
 21
-121.091433
 31
0.000000
 0
LINE
 8
0
 6
CONTINUOUS
 62
7
 10
-137.244281
 20
-121.091433
 30
0.000000
 11
-137.257844
 21
-121.163991
 31
0.000000
 0
LINE
 8
0
 6
CONTINUOUS
 62
7
 10
-137.257844
 20
-121.163991
 30
0.000000
 11
-137.257844
 21
-121.237806
 31
0.000000
 0
LINE
 8
0
 6
CONTINUOUS
 62
7
 10
-137.257844
 20
-121.237806
 30
0.000000
 11
-137.244281
 21
-121.310364
 31
0.000000
 0
LINE
 8
0
 6
CONTINUOUS
 62
7
 10
-137.244281
 20
-121.310364
 30
0.000000
 11
-137.217616
 21
-121.379194
 31
0.000000
 0
LINE
 8
0
 6
CONTINUOUS
 62
7
 10
-137.217616
 20
-121.379194
 30
0.000000
 11
-137.178758
 21
-121.441952
 31
0.000000
 0
LINE
 8
0
 6
CONTINUOUS
 62
7
 10
-137.178758
 20
-121.441952
 30
0.000000
 11
-137.129029
 21
-121.496502
 31
0.000000
 0
LINE
 8
0
 6
CONTINUOUS
 62
7
 10
-137.129029
 20
-121.496502
 30
0.000000
 11
-137.070124
 21
-121.540985
 31
0.000000
 0
LINE
 8
0
 6
CONTINUOUS
 62
7
 10
-137.070124
 20
-121.540985
 30
0.000000
 11
-137.004047
 21
-121.573887
 31
0.000000
 0
LINE
 8
0
 6
CONTINUOUS
 62
7
 10
-137.004047
 20
-121.573887
 30
0.000000
 11
-136.933051
 21
-121.594088
 31
0.000000
 0
LINE
 8
0
 6
CONTINUOUS
 62
7
 10
-136.933051
 20
-121.594088
 30
0.000000
 11
-136.859551
 21
-121.600898
 31
0.000000
 0
LINE
 8
0
 6
CONTINUOUS
 62
7
 10
-136.859551
 20
-121.600898
 30
0.000000
 11
-136.786051
 21
-121.594088
 31
0.000000
 0
LINE
 8
0
 6
CONTINUOUS
 62
7
 10
-136.786051
 20
-121.594088
 30
0.000000
 11
-136.715054
 21
-121.573887
 31
0.000000
 0
LINE
 8
0
 6
CONTINUOUS
 62
7
 10
-136.715054
 20
-121.573887
 30
0.000000
 11
-136.648978
 21
-121.540985
 31
0.000000
 0
LINE
 8
0
 6
CONTINUOUS
 62
7
 10
-136.648978
 20
-121.540985
 30
0.000000
 11
-136.590073
 21
-121.496502
 31
0.000000
 0
LINE
 8
0
 6
CONTINUOUS
 62
7
 10
-136.590073
 20
-121.496502
 30
0.000000
 11
-136.540344
 21
-121.441952
 31
0.000000
 0
LINE
 8
0
 6
CONTINUOUS
 62
7
 10
-136.540344
 20
-121.441952
 30
0.000000
 11
-136.501485
 21
-121.379194
 31
0.000000
 0
LINE
 8
0
 6
CONTINUOUS
 62
7
 10
-136.501485
 20
-121.379194
 30
0.000000
 11
-136.474821
 21
-121.310364
 31
0.000000
 0
LINE
 8
0
 6
CONTINUOUS
 62
7
 10
-136.474821
 20
-121.310364
 30
0.000000
 11
-136.461257
 21
-121.237806
 31
0.000000
 0
LINE
 8
0
 6
CONTINUOUS
 62
7
 10
-136.461257
 20
-121.237806
 30
0.000000
 11
-136.461257
 21
-121.163991
 31
0.000000
 0
LINE
 8
0
 6
CONTINUOUS
 62
7
 10
-136.461257
 20
-121.163991
 30
0.000000
 11
-136.474821
 21
-121.091433
 31
0.000000
 0
LINE
 8
0
 6
CONTINUOUS
 62
7
 10
-136.474821
 20
-121.091433
 30
0.000000
 11
-136.501485
 21
-121.022603
 31
0.000000
 0
LINE
 8
0
 6
CONTINUOUS
 62
7
 10
-136.501485
 20
-121.022603
 30
0.000000
 11
-136.540344
 21
-120.959844
 31
0.000000
 0
LINE
 8
0
 6
CONTINUOUS
 62
7
 10
-137.004047
 20
-120.827909
 30
0.000000
 11
-137.070124
 21
-120.860811
 31
0.000000
 0
LINE
 8
0
 6
CONTINUOUS
 62
7
 10
-136.933051
 20
-120.807709
 30
0.000000
 11
-137.004047
 21
-120.827909
 31
0.000000
 0
LINE
 8
0
 6
CONTINUOUS
 62
7
 10
-136.859551
 20
-120.800898
 30
0.000000
 11
-136.933051
 21
-120.807709
 31
0.000000
 0
LINE
 8
0
 6
CONTINUOUS
 62
7
 10
-136.786051
 20
-120.807709
 30
0.000000
 11
-136.859551
 21
-120.800898
 31
0.000000
 0
LINE
 8
0
 6
CONTINUOUS
 62
7
 10
-136.715054
 20
-120.827909
 30
0.000000
 11
-136.786051
 21
-120.807709
 31
0.000000
 0
LINE
 8
0
 6
CONTINUOUS
 62
7
 10
-136.648978
 20
-120.860811
 30
0.000000
 11
-136.715054
 21
-120.827909
 31
0.000000
 0
LINE
 8
0
 6
CONTINUOUS
 62
7
 10
-136.590073
 20
-120.905295
 30
0.000000
 11
-136.648978
 21
-120.860811
 31
0.000000
 0
LINE
 8
0
 6
CONTINUOUS
 62
7
 10
-136.540344
 20
-120.959844
 30
0.000000
 11
-136.590073
 21
-120.905295
 31
0.000000
 0
LINE
 8
0
 6
CONTINUOUS
 62
7
 10
-136.859551
 20
-121.600913
 30
0.000000
 11
-136.933052
 21
-121.594102
 31
0.000000
 0
LINE
 8
0
 6
CONTINUOUS
 62
7
 10
-136.933052
 20
-121.594102
 30
0.000000
 11
-137.004050
 21
-121.573902
 31
0.000000
 0
LINE
 8
0
 6
CONTINUOUS
 62
7
 10
-137.004050
 20
-121.573902
 30
0.000000
 11
-137.070128
 21
-121.540999
 31
0.000000
 0
LINE
 8
0
 6
CONTINUOUS
 62
7
 10
-137.070128
 20
-121.540999
 30
0.000000
 11
-137.129034
 21
-121.496515
 31
0.000000
 0
LINE
 8
0
 6
CONTINUOUS
 62
7
 10
-137.129034
 20
-121.496515
 30
0.000000
 11
-137.178764
 21
-121.441964
 31
0.000000
 0
LINE
 8
0
 6
CONTINUOUS
 62
7
 10
-137.178764
 20
-121.441964
 30
0.000000
 11
-137.217623
 21
-121.379205
 31
0.000000
 0
LINE
 8
0
 6
CONTINUOUS
 62
7
 10
-137.217623
 20
-121.379205
 30
0.000000
 11
-137.244288
 21
-121.310373
 31
0.000000
 0
LINE
 8
0
 6
CONTINUOUS
 62
7
 10
-137.244288
 20
-121.310373
 30
0.000000
 11
-137.257852
 21
-121.237814
 31
0.000000
 0
LINE
 8
0
 6
CONTINUOUS
 62
7
 10
-137.257852
 20
-121.237814
 30
0.000000
 11
-137.257852
 21
-121.163998
 31
0.000000
 0
LINE
 8
0
 6
CONTINUOUS
 62
7
 10
-137.257852
 20
-121.163998
 30
0.000000
 11
-137.244288
 21
-121.091439
 31
0.000000
 0
LINE
 8
0
 6
CONTINUOUS
 62
7
 10
-137.244288
 20
-121.091439
 30
0.000000
 11
-137.217623
 21
-121.022607
 31
0.000000
 0
LINE
 8
0
 6
CONTINUOUS
 62
7
 10
-137.229551
 20
-120.560040
 30
0.000000
 11
-137.599551
 21
-121.200898
 31
0.000000
 0
LINE
 8
0
 6
CONTINUOUS
 62
7
 10
-137.217623
 20
-121.022607
 30
0.000000
 11
-137.178764
 21
-120.959847
 31
0.000000
 0
LINE
 8
0
 6
CONTINUOUS
 62
7
 10
-137.178764
 20
-120.959847
 30
0.000000
 11
-137.129034
 21
-120.905297
 31
0.000000
 0
LINE
 8
0
 6
CONTINUOUS
 62
7
 10
-137.129034
 20
-120.905297
 30
0.000000
 11
-137.070128
 21
-120.860813
 31
0.000000
 0
LINE
 8
0
 6
CONTINUOUS
 62
7
 10
-136.489551
 20
-120.560040
 30
0.000000
 11
-137.229551
 21
-120.560040
 31
0.000000
 0
LINE
 8
0
 6
CONTINUOUS
 62
7
 10
-136.648974
 20
-120.860813
 30
0.000000
 11
-136.590067
 21
-120.905297
 31
0.000000
 0
LINE
 8
0
 6
CONTINUOUS
 62
7
 10
-136.590067
 20
-120.905297
 30
0.000000
 11
-136.540338
 21
-120.959847
 31
0.000000
 0
LINE
 8
0
 6
CONTINUOUS
 62
7
 10
-136.540338
 20
-120.959847
 30
0.000000
 11
-136.501479
 21
-121.022607
 31
0.000000
 0
LINE
 8
0
 6
CONTINUOUS
 62
7
 10
-136.119551
 20
-121.200898
 30
0.000000
 11
-136.489551
 21
-120.560040
 31
0.000000
 0
LINE
 8
0
 6
CONTINUOUS
 62
7
 10
-136.501479
 20
-121.022607
 30
0.000000
 11
-136.474813
 21
-121.091439
 31
0.000000
 0
LINE
 8
0
 6
CONTINUOUS
 62
7
 10
-136.474813
 20
-121.091439
 30
0.000000
 11
-136.461250
 21
-121.163998
 31
0.000000
 0
LINE
 8
0
 6
CONTINUOUS
 62
7
 10
-136.461250
 20
-121.163998
 30
0.000000
 11
-136.461250
 21
-121.237814
 31
0.000000
 0
LINE
 8
0
 6
CONTINUOUS
 62
7
 10
-136.461250
 20
-121.237814
 30
0.000000
 11
-136.474813
 21
-121.310373
 31
0.000000
 0
LINE
 8
0
 6
CONTINUOUS
 62
7
 10
-136.474813
 20
-121.310373
 30
0.000000
 11
-136.501479
 21
-121.379205
 31
0.000000
 0
LINE
 8
0
 6
CONTINUOUS
 62
7
 10
-136.501479
 20
-121.379205
 30
0.000000
 11
-136.540338
 21
-121.441964
 31
0.000000
 0
LINE
 8
0
 6
CONTINUOUS
 62
7
 10
-136.540338
 20
-121.441964
 30
0.000000
 11
-136.590067
 21
-121.496515
 31
0.000000
 0
LINE
 8
0
 6
CONTINUOUS
 62
7
 10
-136.590067
 20
-121.496515
 30
0.000000
 11
-136.648974
 21
-121.540999
 31
0.000000
 0
LINE
 8
0
 6
CONTINUOUS
 62
7
 10
-136.648974
 20
-121.540999
 30
0.000000
 11
-136.715051
 21
-121.573902
 31
0.000000
 0
LINE
 8
0
 6
CONTINUOUS
 62
7
 10
-136.715051
 20
-121.573902
 30
0.000000
 11
-136.786050
 21
-121.594102
 31
0.000000
 0
LINE
 8
0
 6
CONTINUOUS
 62
7
 10
-136.786050
 20
-121.594102
 30
0.000000
 11
-136.859551
 21
-121.600913
 31
0.000000
 0
LINE
 8
0
 6
CONTINUOUS
 62
7
 10
-137.229551
 20
-121.841757
 30
0.000000
 11
-136.489551
 21
-121.841757
 31
0.000000
 0
LINE
 8
0
 6
CONTINUOUS
 62
7
 10
-137.599551
 20
-121.200898
 30
0.000000
 11
-137.229551
 21
-121.841757
 31
0.000000
 0
LINE
 8
0
 6
CONTINUOUS
 62
7
 10
-136.489551
 20
-121.841757
 30
0.000000
 11
-136.119551
 21
-121.200898
 31
0.000000
 0
LINE
 8
0
 6
CONTINUOUS
 62
7
 10
-136.841137
 20
-120.802605
 30
0.000000
 11
-136.804465
 21
-120.806003
 31
0.000000
 0
LINE
 8
0
 6
CONTINUOUS
 62
7
 10
-111.859750
 20
-84.999535
 30
0.000000
 11
-130.259751
 21
-84.999535
 31
0.000000
 0
LINE
 8
0
 6
CONTINUOUS
 62
7
 10
-130.259751
 20
-84.999535
 30
0.000000
 11
-130.752344
 21
-84.999535
 31
0.000000
 0
LINE
 8
0
 6
CONTINUOUS
 62
7
 10
-130.752344
 20
-84.999535
 30
0.000000
 11
-131.344493
 21
-84.999535
 31
0.000000
 0
LINE
 8
0
 6
CONTINUOUS
 62
7
 10
-131.344493
 20
-84.999535
 30
0.000000
 11
-131.790142
 21
-84.999535
 31
0.000000
 0
LINE
 8
0
 6
CONTINUOUS
 62
7
 10
-131.790142
 20
-84.999535
 30
0.000000
 11
-132.029102
 21
-84.999535
 31
0.000000
 0
LINE
 8
0
 6
CONTINUOUS
 62
7
 10
-111.367157
 20
-84.999535
 30
0.000000
 11
-111.859750
 21
-84.999535
 31
0.000000
 0
LINE
 8
0
 6
CONTINUOUS
 62
7
 10
-134.859751
 20
-84.999535
 30
0.000000
 11
-69.859749
 21
-84.999535
 31
0.000000
 0
LINE
 8
0
 6
CONTINUOUS
 62
7
 10
-92.859750
 20
-84.999535
 30
0.000000
 11
-93.352343
 21
-84.999535
 31
0.000000
 0
LINE
 8
0
 6
CONTINUOUS
 62
7
 10
-93.352343
 20
-84.999535
 30
0.000000
 11
-93.944492
 21
-84.999535
 31
0.000000
 0
LINE
 8
0
 6
CONTINUOUS
 62
7
 10
-93.944492
 20
-84.999535
 30
0.000000
 11
-94.390141
 21
-84.999535
 31
0.000000
 0
LINE
 8
0
 6
CONTINUOUS
 62
7
 10
-94.390141
 20
-84.999535
 30
0.000000
 11
-94.629101
 21
-84.999535
 31
0.000000
 0
LINE
 8
0
 6
CONTINUOUS
 62
7
 10
-72.690398
 20
-84.999535
 30
0.000000
 11
-72.929359
 21
-84.999535
 31
0.000000
 0
LINE
 8
0
 6
CONTINUOUS
 62
7
 10
-72.929359
 20
-84.999535
 30
0.000000
 11
-73.375007
 21
-84.999535
 31
0.000000
 0
LINE
 8
0
 6
CONTINUOUS
 62
7
 10
-73.375007
 20
-84.999535
 30
0.000000
 11
-73.967156
 21
-84.999535
 31
0.000000
 0
LINE
 8
0
 6
CONTINUOUS
 62
7
 10
-73.967156
 20
-84.999535
 30
0.000000
 11
-74.459749
 21
-84.999535
 31
0.000000
 0
LINE
 8
0
 6
CONTINUOUS
 62
7
 10
-74.459749
 20
-84.999535
 30
0.000000
 11
-92.859750
 21
-84.999535
 31
0.000000
 0
LINE
 8
0
 6
CONTINUOUS
 62
7
 10
-110.775008
 20
-84.999535
 30
0.000000
 11
-111.367157
 21
-84.999535
 31
0.000000
 0
LINE
 8
0
 6
CONTINUOUS
 62
7
 10
-105.059750
 20
-84.999535
 30
0.000000
 11
-105.552344
 21
-84.999535
 31
0.000000
 0
LINE
 8
0
 6
CONTINUOUS
 62
7
 10
-110.329359
 20
-84.999535
 30
0.000000
 11
-110.775008
 21
-84.999535
 31
0.000000
 0
LINE
 8
0
 6
CONTINUOUS
 62
7
 10
-105.552344
 20
-84.999535
 30
0.000000
 11
-106.144493
 21
-84.999535
 31
0.000000
 0
LINE
 8
0
 6
CONTINUOUS
 62
7
 10
-110.090399
 20
-84.999535
 30
0.000000
 11
-110.329359
 21
-84.999535
 31
0.000000
 0
LINE
 8
0
 6
CONTINUOUS
 62
7
 10
-106.144493
 20
-84.999535
 30
0.000000
 11
-106.590141
 21
-84.999535
 31
0.000000
 0
LINE
 8
0
 6
CONTINUOUS
 62
7
 10
-106.590141
 20
-84.999535
 30
0.000000
 11
-106.829102
 21
-84.999535
 31
0.000000
 0
LINE
 8
0
 6
CONTINUOUS
 62
7
 10
-97.890398
 20
-84.999535
 30
0.000000
 11
-98.129359
 21
-84.999535
 31
0.000000
 0
LINE
 8
0
 6
CONTINUOUS
 62
7
 10
-98.129359
 20
-84.999535
 30
0.000000
 11
-98.575008
 21
-84.999535
 31
0.000000
 0
LINE
 8
0
 6
CONTINUOUS
 62
7
 10
-98.575008
 20
-84.999535
 30
0.000000
 11
-99.167157
 21
-84.999535
 31
0.000000
 0
LINE
 8
0
 6
CONTINUOUS
 62
7
 10
-99.167157
 20
-84.999535
 30
0.000000
 11
-99.659750
 21
-84.999535
 31
0.000000
 0
LINE
 8
0
 6
CONTINUOUS
 62
7
 10
-99.659750
 20
-84.999535
 30
0.000000
 11
-105.059750
 21
-84.999535
 31
0.000000
 0
LINE
 8
0
 6
CONTINUOUS
 62
7
 10
-134.859751
 20
-84.999535
 30
0.000000
 11
-134.859751
 21
-85.000000
 31
0.000000
 0
LINE
 8
0
 6
CONTINUOUS
 62
7
 10
-69.859749
 20
-84.999535
 30
0.000000
 11
-69.859749
 21
-85.000000
 31
0.000000
 0
ENDSEC
 0
EOF
