 0
SECTION
 2
HEADER
 0
ENDSEC
 0
SECTION
 2
TABLES
 0
TABLE
 2
LTYPE
 70
1
 0
ENDTAB
 0
TABLE
 2
LAYER
 70
1
 0
LAYER
 2
0
 70
0
 62
7
 6
CONTINUOUS
 0
ENDTAB
 0
TABLE
 2
STYLE
 70
1
 0
STYLE
 2
STANDARD
 70
0
 40
0.500000
 41
1.000000
 50
30.000000
 71
0
 42
0.500000
 3
txt
 4

 0
ENDTAB
 0
ENDSEC
 0
SECTION
 2
ENTITIES
 0
LINE
 8
0
 6
CONTINUOUS
 62
7
 10
-109.062152
 20
-84.999535
 30
0.000000
 11
-109.062152
 21
-85.799535
 31
0.000000
 0
LINE
 8
0
 6
CONTINUOUS
 62
7
 10
-122.062152
 20
-85.799535
 30
0.000000
 11
-122.062152
 21
-84.999535
 31
0.000000
 0
LINE
 8
0
 6
CONTINUOUS
 62
7
 10
-109.062152
 20
-85.799535
 30
0.000000
 11
-122.062152
 21
-85.799535
 31
0.000000
 0
LINE
 8
0
 6
CONTINUOUS
 62
7
 10
-117.293438
 20
-84.999535
 30
0.000000
 11
-117.362152
 21
-84.999535
 31
0.000000
 0
LINE
 8
0
 6
CONTINUOUS
 62
7
 10
-116.509730
 20
-84.999535
 30
0.000000
 11
-116.998583
 21
-84.999535
 31
0.000000
 0
LINE
 8
0
 6
CONTINUOUS
 62
7
 10
-116.998583
 20
-84.999535
 30
0.000000
 11
-117.293438
 21
-84.999535
 31
0.000000
 0
LINE
 8
0
 6
CONTINUOUS
 62
7
 10
-113.762152
 20
-84.999535
 30
0.000000
 11
-113.830866
 21
-84.999535
 31
0.000000
 0
LINE
 8
0
 6
CONTINUOUS
 62
7
 10
-113.830866
 20
-84.999535
 30
0.000000
 11
-114.125721
 21
-84.999535
 31
0.000000
 0
LINE
 8
0
 6
CONTINUOUS
 62
7
 10
-114.125721
 20
-84.999535
 30
0.000000
 11
-114.614574
 21
-84.999535
 31
0.000000
 0
LINE
 8
0
 6
CONTINUOUS
 62
7
 10
-114.614574
 20
-84.999535
 30
0.000000
 11
-115.231403
 21
-84.999535
 31
0.000000
 0
LINE
 8
0
 6
CONTINUOUS
 62
7
 10
-115.231403
 20
-84.999535
 30
0.000000
 11
-115.892901
 21
-84.999535
 31
0.000000
 0
LINE
 8
0
 6
CONTINUOUS
 62
7
 10
-115.892901
 20
-84.999535
 30
0.000000
 11
-116.509730
 21
-84.999535
 31
0.000000
 0
LINE
 8
0
 6
CONTINUOUS
 62
7
 10
-122.062152
 20
-84.999535
 30
0.000000
 11
-109.062152
 21
-84.999535
 31
0.000000
 0
LINE
 8
0
 6
CONTINUOUS
 62
7
 10
-106.887604
 20
-104.060946
 30
0.000000
 11
-106.887604
 21
-103.828831
 31
0.000000
 0
LINE
 8
0
 6
CONTINUOUS
 62
7
 10
-106.887604
 20
-103.828831
 30
0.000000
 11
-106.887604
 21
-103.604621
 31
0.000000
 0
LINE
 8
0
 6
CONTINUOUS
 62
7
 10
-106.887604
 20
-103.604621
 30
0.000000
 11
-106.887604
 21
-103.395950
 31
0.000000
 0
LINE
 8
0
 6
CONTINUOUS
 62
7
 10
-106.887604
 20
-103.395950
 30
0.000000
 11
-106.887604
 21
-103.209925
 31
0.000000
 0
LINE
 8
0
 6
CONTINUOUS
 62
7
 10
-106.887604
 20
-103.209925
 30
0.000000
 11
-106.887604
 21
-103.052881
 31
0.000000
 0
LINE
 8
0
 6
CONTINUOUS
 62
7
 10
-106.887604
 20
-103.052881
 30
0.000000
 11
-106.887604
 21
-102.930165
 31
0.000000
 0
LINE
 8
0
 6
CONTINUOUS
 62
7
 10
-106.887604
 20
-102.930165
 30
0.000000
 11
-106.887604
 21
-102.845956
 31
0.000000
 0
LINE
 8
0
 6
CONTINUOUS
 62
7
 10
-106.887604
 20
-102.845956
 30
0.000000
 11
-106.887604
 21
-102.803122
 31
0.000000
 0
LINE
 8
0
 6
CONTINUOUS
 62
7
 10
-106.887604
 20
-105.318769
 30
0.000000
 11
-106.887604
 21
-105.275935
 31
0.000000
 0
LINE
 8
0
 6
CONTINUOUS
 62
7
 10
-106.887604
 20
-105.275935
 30
0.000000
 11
-106.887604
 21
-105.191727
 31
0.000000
 0
LINE
 8
0
 6
CONTINUOUS
 62
7
 10
-106.887604
 20
-105.191727
 30
0.000000
 11
-106.887604
 21
-105.069011
 31
0.000000
 0
LINE
 8
0
 6
CONTINUOUS
 62
7
 10
-106.887604
 20
-105.069011
 30
0.000000
 11
-106.887604
 21
-104.911966
 31
0.000000
 0
LINE
 8
0
 6
CONTINUOUS
 62
7
 10
-106.887604
 20
-104.911966
 30
0.000000
 11
-106.887604
 21
-104.725941
 31
0.000000
 0
LINE
 8
0
 6
CONTINUOUS
 62
7
 10
-106.887604
 20
-104.725941
 30
0.000000
 11
-106.887604
 21
-104.517270
 31
0.000000
 0
LINE
 8
0
 6
CONTINUOUS
 62
7
 10
-106.887604
 20
-104.517270
 30
0.000000
 11
-106.887604
 21
-104.293060
 31
0.000000
 0
LINE
 8
0
 6
CONTINUOUS
 62
7
 10
-106.887604
 20
-104.293060
 30
0.000000
 11
-106.887604
 21
-104.060946
 31
0.000000
 0
LINE
 8
0
 6
CONTINUOUS
 62
7
 10
-109.916318
 20
-105.576490
 30
0.000000
 11
-108.992570
 21
-105.576490
 31
0.000000
 0
LINE
 8
0
 6
CONTINUOUS
 62
7
 10
-109.916318
 20
-104.060946
 30
0.000000
 11
-108.992570
 21
-104.060946
 31
0.000000
 0
LINE
 8
0
 6
CONTINUOUS
 62
7
 10
-108.992570
 20
-102.545401
 30
0.000000
 11
-109.916318
 21
-102.545401
 31
0.000000
 0
LINE
 8
0
 6
CONTINUOUS
 62
7
 10
-109.916318
 20
-104.060946
 30
0.000000
 11
-109.916318
 21
-102.545401
 31
0.000000
 0
LINE
 8
0
 6
CONTINUOUS
 62
7
 10
-109.916318
 20
-105.576490
 30
0.000000
 11
-109.916318
 21
-104.060946
 31
0.000000
 0
LINE
 8
0
 6
CONTINUOUS
 62
7
 10
-108.992570
 20
-105.318769
 30
0.000000
 11
-108.992570
 21
-105.275935
 31
0.000000
 0
LINE
 8
0
 6
CONTINUOUS
 62
7
 10
-108.992570
 20
-105.275935
 30
0.000000
 11
-108.992570
 21
-105.191727
 31
0.000000
 0
LINE
 8
0
 6
CONTINUOUS
 62
7
 10
-108.992570
 20
-105.191727
 30
0.000000
 11
-108.992570
 21
-105.069011
 31
0.000000
 0
LINE
 8
0
 6
CONTINUOUS
 62
7
 10
-108.992570
 20
-105.069011
 30
0.000000
 11
-108.992570
 21
-104.911966
 31
0.000000
 0
LINE
 8
0
 6
CONTINUOUS
 62
7
 10
-108.992570
 20
-104.911966
 30
0.000000
 11
-108.992570
 21
-104.725941
 31
0.000000
 0
LINE
 8
0
 6
CONTINUOUS
 62
7
 10
-108.992570
 20
-104.060946
 30
0.000000
 11
-108.992570
 21
-105.576490
 31
0.000000
 0
LINE
 8
0
 6
CONTINUOUS
 62
7
 10
-108.992570
 20
-104.725941
 30
0.000000
 11
-108.992570
 21
-104.517270
 31
0.000000
 0
LINE
 8
0
 6
CONTINUOUS
 62
7
 10
-108.992570
 20
-104.517270
 30
0.000000
 11
-108.992570
 21
-104.293060
 31
0.000000
 0
LINE
 8
0
 6
CONTINUOUS
 62
7
 10
-108.992570
 20
-104.293060
 30
0.000000
 11
-108.992570
 21
-104.060946
 31
0.000000
 0
LINE
 8
0
 6
CONTINUOUS
 62
7
 10
-108.992570
 20
-104.060946
 30
0.000000
 11
-108.992570
 21
-103.828831
 31
0.000000
 0
LINE
 8
0
 6
CONTINUOUS
 62
7
 10
-108.992570
 20
-103.828831
 30
0.000000
 11
-108.992570
 21
-103.604621
 31
0.000000
 0
LINE
 8
0
 6
CONTINUOUS
 62
7
 10
-108.992570
 20
-103.604621
 30
0.000000
 11
-108.992570
 21
-103.395950
 31
0.000000
 0
LINE
 8
0
 6
CONTINUOUS
 62
7
 10
-108.992570
 20
-102.545401
 30
0.000000
 11
-108.992570
 21
-104.060946
 31
0.000000
 0
LINE
 8
0
 6
CONTINUOUS
 62
7
 10
-108.992570
 20
-103.395950
 30
0.000000
 11
-108.992570
 21
-103.209925
 31
0.000000
 0
LINE
 8
0
 6
CONTINUOUS
 62
7
 10
-108.992570
 20
-103.209925
 30
0.000000
 11
-108.992570
 21
-103.052881
 31
0.000000
 0
LINE
 8
0
 6
CONTINUOUS
 62
7
 10
-108.992570
 20
-103.052881
 30
0.000000
 11
-108.992570
 21
-102.930165
 31
0.000000
 0
LINE
 8
0
 6
CONTINUOUS
 62
7
 10
-108.992570
 20
-102.930165
 30
0.000000
 11
-108.992570
 21
-102.845956
 31
0.000000
 0
LINE
 8
0
 6
CONTINUOUS
 62
7
 10
-108.992570
 20
-102.845956
 30
0.000000
 11
-108.992570
 21
-102.803122
 31
0.000000
 0
LINE
 8
0
 6
CONTINUOUS
 62
7
 10
-109.916318
 20
-105.318769
 30
0.000000
 11
-109.941732
 21
-105.318769
 31
0.000000
 0
LINE
 8
0
 6
CONTINUOUS
 62
7
 10
-109.916318
 20
-102.803122
 30
0.000000
 11
-109.941732
 21
-102.803122
 31
0.000000
 0
LINE
 8
0
 6
CONTINUOUS
 62
7
 10
-106.887604
 20
-102.803122
 30
0.000000
 11
-108.992570
 21
-102.803122
 31
0.000000
 0
LINE
 8
0
 6
CONTINUOUS
 62
7
 10
-106.887604
 20
-105.318769
 30
0.000000
 11
-108.992570
 21
-105.318769
 31
0.000000
 0
LINE
 8
0
 6
CONTINUOUS
 62
7
 10
-112.262147
 20
-138.300001
 30
0.000000
 11
-112.262147
 21
-113.303100
 31
0.000000
 0
LINE
 8
0
 6
CONTINUOUS
 62
7
 10
-112.262147
 20
-113.303100
 30
0.000000
 11
-112.262143
 21
-113.303100
 31
0.000000
 0
LINE
 8
0
 6
CONTINUOUS
 62
7
 10
-112.262143
 20
-138.300001
 30
0.000000
 11
-112.262147
 21
-138.300001
 31
0.000000
 0
LINE
 8
0
 6
CONTINUOUS
 62
7
 10
-118.862136
 20
-111.633100
 30
0.000000
 11
-118.862154
 21
-111.633100
 31
0.000000
 0
LINE
 8
0
 6
CONTINUOUS
 62
7
 10
-112.262154
 20
-111.633100
 30
0.000000
 11
-112.262136
 21
-111.633100
 31
0.000000
 0
LINE
 8
0
 6
CONTINUOUS
 62
7
 10
-118.862154
 20
-149.700001
 30
0.000000
 11
-122.062154
 21
-149.700001
 31
0.000000
 0
LINE
 8
0
 6
CONTINUOUS
 62
7
 10
-109.062154
 20
-149.700001
 30
0.000000
 11
-112.262154
 21
-149.700001
 31
0.000000
 0
LINE
 8
0
 6
CONTINUOUS
 62
7
 10
-109.062154
 20
-150.000001
 30
0.000000
 11
-109.062154
 21
-149.700001
 31
0.000000
 0
LINE
 8
0
 6
CONTINUOUS
 62
7
 10
-118.862154
 20
-111.633100
 30
0.000000
 11
-118.862154
 21
-149.700001
 31
0.000000
 0
LINE
 8
0
 6
CONTINUOUS
 62
7
 10
-112.262154
 20
-111.633100
 30
0.000000
 11
-118.862154
 21
-111.633100
 31
0.000000
 0
LINE
 8
0
 6
CONTINUOUS
 62
7
 10
-112.262154
 20
-149.700001
 30
0.000000
 11
-112.262154
 21
-111.633100
 31
0.000000
 0
LINE
 8
0
 6
CONTINUOUS
 62
7
 10
-122.062154
 20
-150.000001
 30
0.000000
 11
-122.062154
 21
-149.700001
 31
0.000000
 0
LINE
 8
0
 6
CONTINUOUS
 62
7
 10
-118.562154
 20
-150.000001
 30
0.000000
 11
-112.562154
 21
-150.000001
 31
0.000000
 0
LINE
 8
0
 6
CONTINUOUS
 62
7
 10
-109.062154
 20
-150.000001
 30
0.000000
 11
-122.062154
 21
-150.000001
 31
0.000000
 0
LINE
 8
0
 6
CONTINUOUS
 62
7
 10
-112.262147
 20
-138.300001
 30
0.000000
 11
-112.262143
 21
-138.300001
 31
0.000000
 0
LINE
 8
0
 6
CONTINUOUS
 62
7
 10
-112.262143
 20
-113.303100
 30
0.000000
 11
-112.262143
 21
-116.273050
 31
0.000000
 0
LINE
 8
0
 6
CONTINUOUS
 62
7
 10
-112.262143
 20
-117.073182
 30
0.000000
 11
-112.262143
 21
-121.173898
 31
0.000000
 0
LINE
 8
0
 6
CONTINUOUS
 62
7
 10
-112.262143
 20
-121.974026
 30
0.000000
 11
-112.262143
 21
-138.300001
 31
0.000000
 0
LINE
 8
0
 6
CONTINUOUS
 62
7
 10
-112.262136
 20
-129.499536
 30
0.000000
 11
-112.262136
 21
-149.700001
 31
0.000000
 0
LINE
 8
0
 6
CONTINUOUS
 62
7
 10
-118.562154
 20
-111.633100
 30
0.000000
 11
-118.562152
 21
-111.633100
 31
0.000000
 0
LINE
 8
0
 6
CONTINUOUS
 62
7
 10
-112.562136
 20
-111.633100
 30
0.000000
 11
-112.562152
 21
-111.633100
 31
0.000000
 0
LINE
 8
0
 6
CONTINUOUS
 62
7
 10
-112.562154
 20
-111.633100
 30
0.000000
 11
-118.562153
 21
-111.633100
 31
0.000000
 0
LINE
 8
0
 6
CONTINUOUS
 62
7
 10
-118.562153
 20
-111.633100
 30
0.000000
 11
-118.562154
 21
-111.633100
 31
0.000000
 0
LINE
 8
0
 6
CONTINUOUS
 62
7
 10
-111.474760
 20
-121.332844
 30
0.000000
 11
-111.474754
 21
-121.395603
 31
0.000000
 0
LINE
 8
0
 6
CONTINUOUS
 62
7
 10
-111.474764
 20
-121.278295
 30
0.000000
 11
-111.474760
 21
-121.332844
 31
0.000000
 0
LINE
 8
0
 6
CONTINUOUS
 62
7
 10
-111.474768
 20
-121.233811
 30
0.000000
 11
-111.474764
 21
-121.278295
 31
0.000000
 0
LINE
 8
0
 6
CONTINUOUS
 62
7
 10
-111.474754
 20
-121.395603
 30
0.000000
 11
-111.474749
 21
-121.464433
 31
0.000000
 0
LINE
 8
0
 6
CONTINUOUS
 62
7
 10
-111.474749
 20
-121.464433
 30
0.000000
 11
-111.474743
 21
-121.536991
 31
0.000000
 0
LINE
 8
0
 6
CONTINUOUS
 62
7
 10
-111.474743
 20
-121.536991
 30
0.000000
 11
-111.474737
 21
-121.610806
 31
0.000000
 0
LINE
 8
0
 6
CONTINUOUS
 62
7
 10
-111.474737
 20
-121.610806
 30
0.000000
 11
-111.474731
 21
-121.683364
 31
0.000000
 0
LINE
 8
0
 6
CONTINUOUS
 62
7
 10
-111.474731
 20
-121.683364
 30
0.000000
 11
-111.474726
 21
-121.752194
 31
0.000000
 0
LINE
 8
0
 6
CONTINUOUS
 62
7
 10
-111.474726
 20
-121.752194
 30
0.000000
 11
-111.474721
 21
-121.814952
 31
0.000000
 0
LINE
 8
0
 6
CONTINUOUS
 62
7
 10
-111.474721
 20
-121.814952
 30
0.000000
 11
-111.474716
 21
-121.869502
 31
0.000000
 0
LINE
 8
0
 6
CONTINUOUS
 62
7
 10
-111.474716
 20
-121.869502
 30
0.000000
 11
-111.474713
 21
-121.913985
 31
0.000000
 0
LINE
 8
0
 6
CONTINUOUS
 62
7
 10
-111.474713
 20
-121.913985
 30
0.000000
 11
-111.474710
 21
-121.946887
 31
0.000000
 0
LINE
 8
0
 6
CONTINUOUS
 62
7
 10
-111.474710
 20
-121.946887
 30
0.000000
 11
-111.474708
 21
-121.967088
 31
0.000000
 0
LINE
 8
0
 6
CONTINUOUS
 62
7
 10
-111.474708
 20
-121.967088
 30
0.000000
 11
-111.474708
 21
-121.973898
 31
0.000000
 0
LINE
 8
0
 6
CONTINUOUS
 62
7
 10
-111.474770
 20
-121.200909
 30
0.000000
 11
-111.474768
 21
-121.233811
 31
0.000000
 0
LINE
 8
0
 6
CONTINUOUS
 62
7
 10
-111.474772
 20
-121.180709
 30
0.000000
 11
-111.474770
 21
-121.200909
 31
0.000000
 0
LINE
 8
0
 6
CONTINUOUS
 62
7
 10
-111.474772
 20
-121.173898
 30
0.000000
 11
-111.474772
 21
-121.180709
 31
0.000000
 0
LINE
 8
0
 6
CONTINUOUS
 62
7
 10
-119.287631
 20
-121.574530
 30
0.000000
 11
-119.287616
 21
-121.666942
 31
0.000000
 0
LINE
 8
0
 6
CONTINUOUS
 62
7
 10
-119.287631
 20
-121.574530
 30
0.000000
 11
-119.287631
 21
-121.482119
 31
0.000000
 0
LINE
 8
0
 6
CONTINUOUS
 62
7
 10
-119.269258
 20
-121.937927
 30
0.000000
 11
-119.287616
 21
-121.666942
 31
0.000000
 0
LINE
 8
0
 6
CONTINUOUS
 62
7
 10
-119.044729
 20
-120.521919
 30
0.000000
 11
-118.899147
 21
-120.285499
 31
0.000000
 0
LINE
 8
0
 6
CONTINUOUS
 62
7
 10
-119.287631
 20
-121.482119
 30
0.000000
 11
-119.269317
 21
-121.211131
 31
0.000000
 0
LINE
 8
0
 6
CONTINUOUS
 62
7
 10
-119.188179
 20
-120.856459
 30
0.000000
 11
-119.269317
 21
-121.211131
 31
0.000000
 0
LINE
 8
0
 6
CONTINUOUS
 62
7
 10
-119.044729
 20
-120.521919
 30
0.000000
 11
-119.188179
 21
-120.856459
 31
0.000000
 0
LINE
 8
0
 6
CONTINUOUS
 62
7
 10
-118.898938
 20
-122.863499
 30
0.000000
 11
-119.044559
 21
-122.627103
 31
0.000000
 0
LINE
 8
0
 6
CONTINUOUS
 62
7
 10
-119.188063
 20
-122.292586
 30
0.000000
 11
-119.044559
 21
-122.627103
 31
0.000000
 0
LINE
 8
0
 6
CONTINUOUS
 62
7
 10
-119.188063
 20
-122.292586
 30
0.000000
 11
-119.269258
 21
-121.937927
 31
0.000000
 0
LINE
 8
0
 6
CONTINUOUS
 62
7
 10
-118.898939
 20
-122.858000
 30
0.000000
 11
-118.898938
 21
-122.863499
 31
0.000000
 0
LINE
 8
0
 6
CONTINUOUS
 62
7
 10
-118.898942
 20
-122.814292
 30
0.000000
 11
-118.898940
 21
-122.841551
 31
0.000000
 0
LINE
 8
0
 6
CONTINUOUS
 62
7
 10
-118.898940
 20
-122.841551
 30
0.000000
 11
-118.898939
 21
-122.858000
 31
0.000000
 0
LINE
 8
0
 6
CONTINUOUS
 62
7
 10
-118.898945
 20
-122.776456
 30
0.000000
 11
-118.898942
 21
-122.814292
 31
0.000000
 0
LINE
 8
0
 6
CONTINUOUS
 62
7
 10
-118.898949
 20
-122.728365
 30
0.000000
 11
-118.898945
 21
-122.776456
 31
0.000000
 0
LINE
 8
0
 6
CONTINUOUS
 62
7
 10
-118.898960
 20
-122.603143
 30
0.000000
 11
-118.898954
 21
-122.670429
 31
0.000000
 0
LINE
 8
0
 6
CONTINUOUS
 62
7
 10
-118.898954
 20
-122.670429
 30
0.000000
 11
-118.898949
 21
-122.728365
 31
0.000000
 0
LINE
 8
0
 6
CONTINUOUS
 62
7
 10
-118.898966
 20
-122.527082
 30
0.000000
 11
-118.898960
 21
-122.603143
 31
0.000000
 0
LINE
 8
0
 6
CONTINUOUS
 62
7
 10
-118.898972
 20
-122.442893
 30
0.000000
 11
-118.898966
 21
-122.527082
 31
0.000000
 0
LINE
 8
0
 6
CONTINUOUS
 62
7
 10
-118.898988
 20
-122.253070
 30
0.000000
 11
-118.898980
 21
-122.351295
 31
0.000000
 0
LINE
 8
0
 6
CONTINUOUS
 62
7
 10
-118.898980
 20
-122.351295
 30
0.000000
 11
-118.898972
 21
-122.442893
 31
0.000000
 0
LINE
 8
0
 6
CONTINUOUS
 62
7
 10
-118.898996
 20
-122.149056
 30
0.000000
 11
-118.898988
 21
-122.253070
 31
0.000000
 0
LINE
 8
0
 6
CONTINUOUS
 62
7
 10
-118.899005
 20
-122.040140
 30
0.000000
 11
-118.898996
 21
-122.149056
 31
0.000000
 0
LINE
 8
0
 6
CONTINUOUS
 62
7
 10
-118.899024
 20
-121.811352
 30
0.000000
 11
-118.899014
 21
-121.927251
 31
0.000000
 0
LINE
 8
0
 6
CONTINUOUS
 62
7
 10
-118.899014
 20
-121.927251
 30
0.000000
 11
-118.899005
 21
-122.040140
 31
0.000000
 0
LINE
 8
0
 6
CONTINUOUS
 62
7
 10
-118.899033
 20
-121.693433
 30
0.000000
 11
-118.899024
 21
-121.811352
 31
0.000000
 0
LINE
 8
0
 6
CONTINUOUS
 62
7
 10
-118.899043
 20
-121.574499
 30
0.000000
 11
-118.899033
 21
-121.693433
 31
0.000000
 0
LINE
 8
0
 6
CONTINUOUS
 62
7
 10
-118.899062
 20
-121.337646
 30
0.000000
 11
-118.899052
 21
-121.455565
 31
0.000000
 0
LINE
 8
0
 6
CONTINUOUS
 62
7
 10
-118.899052
 20
-121.455565
 30
0.000000
 11
-118.899043
 21
-121.574499
 31
0.000000
 0
LINE
 8
0
 6
CONTINUOUS
 62
7
 10
-118.899071
 20
-121.221747
 30
0.000000
 11
-118.899062
 21
-121.337646
 31
0.000000
 0
LINE
 8
0
 6
CONTINUOUS
 62
7
 10
-118.899080
 20
-121.108858
 30
0.000000
 11
-118.899071
 21
-121.221747
 31
0.000000
 0
LINE
 8
0
 6
CONTINUOUS
 62
7
 10
-118.899098
 20
-120.895928
 30
0.000000
 11
-118.899089
 21
-120.999942
 31
0.000000
 0
LINE
 8
0
 6
CONTINUOUS
 62
7
 10
-118.899089
 20
-120.999942
 30
0.000000
 11
-118.899080
 21
-121.108858
 31
0.000000
 0
LINE
 8
0
 6
CONTINUOUS
 62
7
 10
-118.899106
 20
-120.797703
 30
0.000000
 11
-118.899098
 21
-120.895928
 31
0.000000
 0
LINE
 8
0
 6
CONTINUOUS
 62
7
 10
-118.899113
 20
-120.706105
 30
0.000000
 11
-118.899106
 21
-120.797703
 31
0.000000
 0
LINE
 8
0
 6
CONTINUOUS
 62
7
 10
-118.899126
 20
-120.545855
 30
0.000000
 11
-118.899120
 21
-120.621916
 31
0.000000
 0
LINE
 8
0
 6
CONTINUOUS
 62
7
 10
-118.899120
 20
-120.621916
 30
0.000000
 11
-118.899113
 21
-120.706105
 31
0.000000
 0
LINE
 8
0
 6
CONTINUOUS
 62
7
 10
-118.899131
 20
-120.478569
 30
0.000000
 11
-118.899126
 21
-120.545855
 31
0.000000
 0
LINE
 8
0
 6
CONTINUOUS
 62
7
 10
-118.899136
 20
-120.420633
 30
0.000000
 11
-118.899131
 21
-120.478569
 31
0.000000
 0
LINE
 8
0
 6
CONTINUOUS
 62
7
 10
-118.899143
 20
-120.334706
 30
0.000000
 11
-118.899140
 21
-120.372542
 31
0.000000
 0
LINE
 8
0
 6
CONTINUOUS
 62
7
 10
-118.899140
 20
-120.372542
 30
0.000000
 11
-118.899136
 21
-120.420633
 31
0.000000
 0
LINE
 8
0
 6
CONTINUOUS
 62
7
 10
-118.899145
 20
-120.307447
 30
0.000000
 11
-118.899143
 21
-120.334706
 31
0.000000
 0
LINE
 8
0
 6
CONTINUOUS
 62
7
 10
-118.899147
 20
-120.290998
 30
0.000000
 11
-118.899145
 21
-120.307447
 31
0.000000
 0
LINE
 8
0
 6
CONTINUOUS
 62
7
 10
-118.899147
 20
-120.285499
 30
0.000000
 11
-118.899147
 21
-120.290998
 31
0.000000
 0
LINE
 8
0
 6
CONTINUOUS
 62
7
 10
-111.567589
 20
-120.933040
 30
0.000000
 11
-112.217589
 21
-120.933040
 31
0.000000
 0
LINE
 8
0
 6
CONTINUOUS
 62
7
 10
-111.567589
 20
-121.573898
 30
0.000000
 11
-112.217589
 21
-121.573898
 31
0.000000
 0
LINE
 8
0
 6
CONTINUOUS
 62
7
 10
-111.567589
 20
-122.214757
 30
0.000000
 11
-112.217589
 21
-122.214757
 31
0.000000
 0
LINE
 8
0
 6
CONTINUOUS
 62
7
 10
-112.217589
 20
-121.573898
 30
0.000000
 11
-112.217589
 21
-120.933040
 31
0.000000
 0
LINE
 8
0
 6
CONTINUOUS
 62
7
 10
-112.217589
 20
-122.214757
 30
0.000000
 11
-112.217589
 21
-121.573898
 31
0.000000
 0
LINE
 8
0
 6
CONTINUOUS
 62
7
 10
-111.567589
 20
-120.933040
 30
0.000000
 11
-111.567589
 21
-121.573898
 31
0.000000
 0
LINE
 8
0
 6
CONTINUOUS
 62
7
 10
-111.567589
 20
-121.200910
 30
0.000000
 11
-111.567589
 21
-121.180709
 31
0.000000
 0
LINE
 8
0
 6
CONTINUOUS
 62
7
 10
-111.567589
 20
-121.180709
 30
0.000000
 11
-111.567589
 21
-121.173898
 31
0.000000
 0
LINE
 8
0
 6
CONTINUOUS
 62
7
 10
-111.567589
 20
-121.573898
 30
0.000000
 11
-111.567589
 21
-122.214757
 31
0.000000
 0
LINE
 8
0
 6
CONTINUOUS
 62
7
 10
-112.217589
 20
-121.173898
 30
0.000000
 11
-112.262147
 21
-121.173898
 31
0.000000
 0
LINE
 8
0
 6
CONTINUOUS
 62
7
 10
-112.217589
 20
-121.974019
 30
0.000000
 11
-112.262147
 21
-121.974026
 31
0.000000
 0
LINE
 8
0
 6
CONTINUOUS
 62
7
 10
-111.474708
 20
-121.973898
 30
0.000000
 11
-111.567589
 21
-121.973913
 31
0.000000
 0
LINE
 8
0
 6
CONTINUOUS
 62
7
 10
-111.474772
 20
-121.173898
 30
0.000000
 11
-111.567589
 21
-121.173898
 31
0.000000
 0
LINE
 8
0
 6
CONTINUOUS
 62
7
 10
-118.898938
 20
-122.863499
 30
0.000000
 11
-118.862154
 21
-122.863546
 31
0.000000
 0
LINE
 8
0
 6
CONTINUOUS
 62
7
 10
-118.862154
 20
-120.285445
 30
0.000000
 11
-118.899147
 21
-120.285499
 31
0.000000
 0
LINE
 8
0
 6
CONTINUOUS
 62
7
 10
-109.941732
 20
-104.758518
 30
0.000000
 11
-109.941732
 21
-104.415774
 31
0.000000
 0
LINE
 8
0
 6
CONTINUOUS
 62
7
 10
-109.941732
 20
-105.077508
 30
0.000000
 11
-109.941732
 21
-104.758518
 31
0.000000
 0
LINE
 8
0
 6
CONTINUOUS
 62
7
 10
-109.941732
 20
-104.415774
 30
0.000000
 11
-109.941732
 21
-104.060946
 31
0.000000
 0
LINE
 8
0
 6
CONTINUOUS
 62
7
 10
-109.941732
 20
-104.060946
 30
0.000000
 11
-109.941732
 21
-103.706118
 31
0.000000
 0
LINE
 8
0
 6
CONTINUOUS
 62
7
 10
-109.941732
 20
-103.706118
 30
0.000000
 11
-109.941732
 21
-103.363373
 31
0.000000
 0
LINE
 8
0
 6
CONTINUOUS
 62
7
 10
-109.941732
 20
-103.363373
 30
0.000000
 11
-109.941732
 21
-103.044384
 31
0.000000
 0
LINE
 8
0
 6
CONTINUOUS
 62
7
 10
-109.941732
 20
-103.044384
 30
0.000000
 11
-109.941732
 21
-102.760012
 31
0.000000
 0
LINE
 8
0
 6
CONTINUOUS
 62
7
 10
-109.941732
 20
-102.760012
 30
0.000000
 11
-109.941732
 21
-102.519942
 31
0.000000
 0
LINE
 8
0
 6
CONTINUOUS
 62
7
 10
-109.941732
 20
-102.519942
 30
0.000000
 11
-109.941732
 21
-102.332349
 31
0.000000
 0
LINE
 8
0
 6
CONTINUOUS
 62
7
 10
-109.941732
 20
-102.332349
 30
0.000000
 11
-109.941732
 21
-102.203621
 31
0.000000
 0
LINE
 8
0
 6
CONTINUOUS
 62
7
 10
-109.941732
 20
-102.138142
 30
0.000000
 11
-110.162152
 21
-102.138142
 31
0.000000
 0
LINE
 8
0
 6
CONTINUOUS
 62
7
 10
-109.941732
 20
-102.203621
 30
0.000000
 11
-109.941732
 21
-102.138142
 31
0.000000
 0
LINE
 8
0
 6
CONTINUOUS
 62
7
 10
-109.941732
 20
-105.983749
 30
0.000000
 11
-110.162152
 21
-105.983749
 31
0.000000
 0
LINE
 8
0
 6
CONTINUOUS
 62
7
 10
-109.941732
 20
-105.983749
 30
0.000000
 11
-109.941732
 21
-105.918270
 31
0.000000
 0
LINE
 8
0
 6
CONTINUOUS
 62
7
 10
-109.941732
 20
-105.918270
 30
0.000000
 11
-109.941732
 21
-105.789543
 31
0.000000
 0
LINE
 8
0
 6
CONTINUOUS
 62
7
 10
-109.941732
 20
-105.789543
 30
0.000000
 11
-109.941732
 21
-105.601950
 31
0.000000
 0
LINE
 8
0
 6
CONTINUOUS
 62
7
 10
-109.941732
 20
-105.601950
 30
0.000000
 11
-109.941732
 21
-105.361880
 31
0.000000
 0
LINE
 8
0
 6
CONTINUOUS
 62
7
 10
-109.941732
 20
-105.361880
 30
0.000000
 11
-109.941732
 21
-105.077508
 31
0.000000
 0
LINE
 8
0
 6
CONTINUOUS
 62
7
 10
-110.162152
 20
-102.203621
 30
0.000000
 11
-110.162152
 21
-102.138142
 31
0.000000
 0
LINE
 8
0
 6
CONTINUOUS
 62
7
 10
-110.162152
 20
-105.983749
 30
0.000000
 11
-110.162152
 21
-105.918270
 31
0.000000
 0
LINE
 8
0
 6
CONTINUOUS
 62
7
 10
-110.162152
 20
-103.706118
 30
0.000000
 11
-110.162152
 21
-103.363373
 31
0.000000
 0
LINE
 8
0
 6
CONTINUOUS
 62
7
 10
-110.162152
 20
-103.363373
 30
0.000000
 11
-110.162152
 21
-103.044384
 31
0.000000
 0
LINE
 8
0
 6
CONTINUOUS
 62
7
 10
-110.162152
 20
-103.044384
 30
0.000000
 11
-110.162152
 21
-102.760012
 31
0.000000
 0
LINE
 8
0
 6
CONTINUOUS
 62
7
 10
-110.162152
 20
-102.760012
 30
0.000000
 11
-110.162152
 21
-102.519942
 31
0.000000
 0
LINE
 8
0
 6
CONTINUOUS
 62
7
 10
-110.162152
 20
-102.519942
 30
0.000000
 11
-110.162152
 21
-102.332349
 31
0.000000
 0
LINE
 8
0
 6
CONTINUOUS
 62
7
 10
-110.162152
 20
-102.332349
 30
0.000000
 11
-110.162152
 21
-102.203621
 31
0.000000
 0
LINE
 8
0
 6
CONTINUOUS
 62
7
 10
-110.162152
 20
-105.918270
 30
0.000000
 11
-110.162152
 21
-105.789543
 31
0.000000
 0
LINE
 8
0
 6
CONTINUOUS
 62
7
 10
-110.162152
 20
-105.789543
 30
0.000000
 11
-110.162152
 21
-105.601950
 31
0.000000
 0
LINE
 8
0
 6
CONTINUOUS
 62
7
 10
-110.162152
 20
-105.601950
 30
0.000000
 11
-110.162152
 21
-105.361880
 31
0.000000
 0
LINE
 8
0
 6
CONTINUOUS
 62
7
 10
-110.162152
 20
-105.361880
 30
0.000000
 11
-110.162152
 21
-105.077508
 31
0.000000
 0
LINE
 8
0
 6
CONTINUOUS
 62
7
 10
-110.162152
 20
-105.077508
 30
0.000000
 11
-110.162152
 21
-104.758518
 31
0.000000
 0
LINE
 8
0
 6
CONTINUOUS
 62
7
 10
-110.162152
 20
-104.758518
 30
0.000000
 11
-110.162152
 21
-104.415774
 31
0.000000
 0
LINE
 8
0
 6
CONTINUOUS
 62
7
 10
-110.162152
 20
-104.415774
 30
0.000000
 11
-110.162152
 21
-104.060946
 31
0.000000
 0
LINE
 8
0
 6
CONTINUOUS
 62
7
 10
-110.162152
 20
-104.060946
 30
0.000000
 11
-110.162152
 21
-103.706118
 31
0.000000
 0
LINE
 8
0
 6
CONTINUOUS
 62
7
 10
-111.446781
 20
-116.431996
 30
0.000000
 11
-111.446776
 21
-116.494754
 31
0.000000
 0
LINE
 8
0
 6
CONTINUOUS
 62
7
 10
-111.446786
 20
-116.377446
 30
0.000000
 11
-111.446781
 21
-116.431996
 31
0.000000
 0
LINE
 8
0
 6
CONTINUOUS
 62
7
 10
-111.446789
 20
-116.332963
 30
0.000000
 11
-111.446786
 21
-116.377446
 31
0.000000
 0
LINE
 8
0
 6
CONTINUOUS
 62
7
 10
-111.446776
 20
-116.494754
 30
0.000000
 11
-111.446771
 21
-116.563584
 31
0.000000
 0
LINE
 8
0
 6
CONTINUOUS
 62
7
 10
-111.446771
 20
-116.563584
 30
0.000000
 11
-111.446765
 21
-116.636142
 31
0.000000
 0
LINE
 8
0
 6
CONTINUOUS
 62
7
 10
-111.446765
 20
-116.636142
 30
0.000000
 11
-111.446759
 21
-116.709957
 31
0.000000
 0
LINE
 8
0
 6
CONTINUOUS
 62
7
 10
-111.446759
 20
-116.709957
 30
0.000000
 11
-111.446753
 21
-116.782515
 31
0.000000
 0
LINE
 8
0
 6
CONTINUOUS
 62
7
 10
-111.446753
 20
-116.782515
 30
0.000000
 11
-111.446748
 21
-116.851345
 31
0.000000
 0
LINE
 8
0
 6
CONTINUOUS
 62
7
 10
-111.446748
 20
-116.851345
 30
0.000000
 11
-111.446742
 21
-116.914103
 31
0.000000
 0
LINE
 8
0
 6
CONTINUOUS
 62
7
 10
-111.446742
 20
-116.914103
 30
0.000000
 11
-111.446738
 21
-116.968653
 31
0.000000
 0
LINE
 8
0
 6
CONTINUOUS
 62
7
 10
-111.446738
 20
-116.968653
 30
0.000000
 11
-111.446734
 21
-117.013136
 31
0.000000
 0
LINE
 8
0
 6
CONTINUOUS
 62
7
 10
-111.446734
 20
-117.013136
 30
0.000000
 11
-111.446732
 21
-117.046039
 31
0.000000
 0
LINE
 8
0
 6
CONTINUOUS
 62
7
 10
-111.446732
 20
-117.046039
 30
0.000000
 11
-111.446730
 21
-117.066239
 31
0.000000
 0
LINE
 8
0
 6
CONTINUOUS
 62
7
 10
-111.446730
 20
-117.066239
 30
0.000000
 11
-111.446730
 21
-117.073050
 31
0.000000
 0
LINE
 8
0
 6
CONTINUOUS
 62
7
 10
-111.446792
 20
-116.300061
 30
0.000000
 11
-111.446789
 21
-116.332963
 31
0.000000
 0
LINE
 8
0
 6
CONTINUOUS
 62
7
 10
-111.446794
 20
-116.279860
 30
0.000000
 11
-111.446792
 21
-116.300061
 31
0.000000
 0
LINE
 8
0
 6
CONTINUOUS
 62
7
 10
-111.446794
 20
-116.273050
 30
0.000000
 11
-111.446794
 21
-116.279860
 31
0.000000
 0
LINE
 8
0
 6
CONTINUOUS
 62
7
 10
-119.259653
 20
-116.673682
 30
0.000000
 11
-119.259638
 21
-116.766093
 31
0.000000
 0
LINE
 8
0
 6
CONTINUOUS
 62
7
 10
-119.259653
 20
-116.673682
 30
0.000000
 11
-119.259653
 21
-116.581270
 31
0.000000
 0
LINE
 8
0
 6
CONTINUOUS
 62
7
 10
-119.241280
 20
-117.037078
 30
0.000000
 11
-119.259638
 21
-116.766093
 31
0.000000
 0
LINE
 8
0
 6
CONTINUOUS
 62
7
 10
-119.016751
 20
-115.621070
 30
0.000000
 11
-118.871169
 21
-115.384650
 31
0.000000
 0
LINE
 8
0
 6
CONTINUOUS
 62
7
 10
-119.259653
 20
-116.581270
 30
0.000000
 11
-119.241339
 21
-116.310282
 31
0.000000
 0
LINE
 8
0
 6
CONTINUOUS
 62
7
 10
-119.160201
 20
-115.955610
 30
0.000000
 11
-119.241339
 21
-116.310282
 31
0.000000
 0
LINE
 8
0
 6
CONTINUOUS
 62
7
 10
-119.016751
 20
-115.621070
 30
0.000000
 11
-119.160201
 21
-115.955610
 31
0.000000
 0
LINE
 8
0
 6
CONTINUOUS
 62
7
 10
-118.870960
 20
-117.962650
 30
0.000000
 11
-119.016581
 21
-117.726254
 31
0.000000
 0
LINE
 8
0
 6
CONTINUOUS
 62
7
 10
-119.160085
 20
-117.391737
 30
0.000000
 11
-119.016581
 21
-117.726254
 31
0.000000
 0
LINE
 8
0
 6
CONTINUOUS
 62
7
 10
-119.160085
 20
-117.391737
 30
0.000000
 11
-119.241280
 21
-117.037078
 31
0.000000
 0
LINE
 8
0
 6
CONTINUOUS
 62
7
 10
-118.870961
 20
-117.957152
 30
0.000000
 11
-118.870960
 21
-117.962650
 31
0.000000
 0
LINE
 8
0
 6
CONTINUOUS
 62
7
 10
-118.870964
 20
-117.913444
 30
0.000000
 11
-118.870962
 21
-117.940703
 31
0.000000
 0
LINE
 8
0
 6
CONTINUOUS
 62
7
 10
-118.870962
 20
-117.940703
 30
0.000000
 11
-118.870961
 21
-117.957152
 31
0.000000
 0
LINE
 8
0
 6
CONTINUOUS
 62
7
 10
-118.870967
 20
-117.875607
 30
0.000000
 11
-118.870964
 21
-117.913444
 31
0.000000
 0
LINE
 8
0
 6
CONTINUOUS
 62
7
 10
-118.870971
 20
-117.827516
 30
0.000000
 11
-118.870967
 21
-117.875607
 31
0.000000
 0
LINE
 8
0
 6
CONTINUOUS
 62
7
 10
-118.870981
 20
-117.702295
 30
0.000000
 11
-118.870976
 21
-117.769580
 31
0.000000
 0
LINE
 8
0
 6
CONTINUOUS
 62
7
 10
-118.870976
 20
-117.769580
 30
0.000000
 11
-118.870971
 21
-117.827516
 31
0.000000
 0
LINE
 8
0
 6
CONTINUOUS
 62
7
 10
-118.870988
 20
-117.626233
 30
0.000000
 11
-118.870981
 21
-117.702295
 31
0.000000
 0
LINE
 8
0
 6
CONTINUOUS
 62
7
 10
-118.870994
 20
-117.542044
 30
0.000000
 11
-118.870988
 21
-117.626233
 31
0.000000
 0
LINE
 8
0
 6
CONTINUOUS
 62
7
 10
-118.871010
 20
-117.352221
 30
0.000000
 11
-118.871002
 21
-117.450446
 31
0.000000
 0
LINE
 8
0
 6
CONTINUOUS
 62
7
 10
-118.871002
 20
-117.450446
 30
0.000000
 11
-118.870994
 21
-117.542044
 31
0.000000
 0
LINE
 8
0
 6
CONTINUOUS
 62
7
 10
-118.871018
 20
-117.248207
 30
0.000000
 11
-118.871010
 21
-117.352221
 31
0.000000
 0
LINE
 8
0
 6
CONTINUOUS
 62
7
 10
-118.871027
 20
-117.139291
 30
0.000000
 11
-118.871018
 21
-117.248207
 31
0.000000
 0
LINE
 8
0
 6
CONTINUOUS
 62
7
 10
-118.871045
 20
-116.910503
 30
0.000000
 11
-118.871036
 21
-117.026402
 31
0.000000
 0
LINE
 8
0
 6
CONTINUOUS
 62
7
 10
-118.871036
 20
-117.026402
 30
0.000000
 11
-118.871027
 21
-117.139291
 31
0.000000
 0
LINE
 8
0
 6
CONTINUOUS
 62
7
 10
-118.871055
 20
-116.792584
 30
0.000000
 11
-118.871045
 21
-116.910503
 31
0.000000
 0
LINE
 8
0
 6
CONTINUOUS
 62
7
 10
-118.871065
 20
-116.673650
 30
0.000000
 11
-118.871055
 21
-116.792584
 31
0.000000
 0
LINE
 8
0
 6
CONTINUOUS
 62
7
 10
-118.871084
 20
-116.436797
 30
0.000000
 11
-118.871074
 21
-116.554716
 31
0.000000
 0
LINE
 8
0
 6
CONTINUOUS
 62
7
 10
-118.871074
 20
-116.554716
 30
0.000000
 11
-118.871065
 21
-116.673650
 31
0.000000
 0
LINE
 8
0
 6
CONTINUOUS
 62
7
 10
-118.871093
 20
-116.320899
 30
0.000000
 11
-118.871084
 21
-116.436797
 31
0.000000
 0
LINE
 8
0
 6
CONTINUOUS
 62
7
 10
-118.871102
 20
-116.208010
 30
0.000000
 11
-118.871093
 21
-116.320899
 31
0.000000
 0
LINE
 8
0
 6
CONTINUOUS
 62
7
 10
-118.871120
 20
-115.995079
 30
0.000000
 11
-118.871111
 21
-116.099094
 31
0.000000
 0
LINE
 8
0
 6
CONTINUOUS
 62
7
 10
-118.871111
 20
-116.099094
 30
0.000000
 11
-118.871102
 21
-116.208010
 31
0.000000
 0
LINE
 8
0
 6
CONTINUOUS
 62
7
 10
-118.871127
 20
-115.896854
 30
0.000000
 11
-118.871120
 21
-115.995079
 31
0.000000
 0
LINE
 8
0
 6
CONTINUOUS
 62
7
 10
-118.871135
 20
-115.805257
 30
0.000000
 11
-118.871127
 21
-115.896854
 31
0.000000
 0
LINE
 8
0
 6
CONTINUOUS
 62
7
 10
-118.871148
 20
-115.645006
 30
0.000000
 11
-118.871142
 21
-115.721068
 31
0.000000
 0
LINE
 8
0
 6
CONTINUOUS
 62
7
 10
-118.871142
 20
-115.721068
 30
0.000000
 11
-118.871135
 21
-115.805257
 31
0.000000
 0
LINE
 8
0
 6
CONTINUOUS
 62
7
 10
-118.871153
 20
-115.577720
 30
0.000000
 11
-118.871148
 21
-115.645006
 31
0.000000
 0
LINE
 8
0
 6
CONTINUOUS
 62
7
 10
-118.871158
 20
-115.519785
 30
0.000000
 11
-118.871153
 21
-115.577720
 31
0.000000
 0
LINE
 8
0
 6
CONTINUOUS
 62
7
 10
-118.871165
 20
-115.433857
 30
0.000000
 11
-118.871162
 21
-115.471694
 31
0.000000
 0
LINE
 8
0
 6
CONTINUOUS
 62
7
 10
-118.871162
 20
-115.471694
 30
0.000000
 11
-118.871158
 21
-115.519785
 31
0.000000
 0
LINE
 8
0
 6
CONTINUOUS
 62
7
 10
-118.871167
 20
-115.406598
 30
0.000000
 11
-118.871165
 21
-115.433857
 31
0.000000
 0
LINE
 8
0
 6
CONTINUOUS
 62
7
 10
-118.871168
 20
-115.390149
 30
0.000000
 11
-118.871167
 21
-115.406598
 31
0.000000
 0
LINE
 8
0
 6
CONTINUOUS
 62
7
 10
-118.871169
 20
-115.384650
 30
0.000000
 11
-118.871168
 21
-115.390149
 31
0.000000
 0
LINE
 8
0
 6
CONTINUOUS
 62
7
 10
-111.539611
 20
-116.032191
 30
0.000000
 11
-112.189611
 21
-116.032191
 31
0.000000
 0
LINE
 8
0
 6
CONTINUOUS
 62
7
 10
-111.539611
 20
-116.673050
 30
0.000000
 11
-112.189611
 21
-116.673050
 31
0.000000
 0
LINE
 8
0
 6
CONTINUOUS
 62
7
 10
-111.539611
 20
-117.313908
 30
0.000000
 11
-112.189611
 21
-117.313908
 31
0.000000
 0
LINE
 8
0
 6
CONTINUOUS
 62
7
 10
-112.189611
 20
-116.673050
 30
0.000000
 11
-112.189611
 21
-116.032191
 31
0.000000
 0
LINE
 8
0
 6
CONTINUOUS
 62
7
 10
-112.189611
 20
-117.313908
 30
0.000000
 11
-112.189611
 21
-116.673050
 31
0.000000
 0
LINE
 8
0
 6
CONTINUOUS
 62
7
 10
-111.539611
 20
-116.636149
 30
0.000000
 11
-111.539611
 21
-116.563590
 31
0.000000
 0
LINE
 8
0
 6
CONTINUOUS
 62
7
 10
-111.539611
 20
-116.032191
 30
0.000000
 11
-111.539611
 21
-116.673050
 31
0.000000
 0
LINE
 8
0
 6
CONTINUOUS
 62
7
 10
-111.539611
 20
-116.494758
 30
0.000000
 11
-111.539611
 21
-116.431999
 31
0.000000
 0
LINE
 8
0
 6
CONTINUOUS
 62
7
 10
-111.539611
 20
-116.673050
 30
0.000000
 11
-111.539611
 21
-117.313908
 31
0.000000
 0
LINE
 8
0
 6
CONTINUOUS
 62
7
 10
-112.189611
 20
-116.273050
 30
0.000000
 11
-112.262147
 21
-116.273050
 31
0.000000
 0
LINE
 8
0
 6
CONTINUOUS
 62
7
 10
-112.189611
 20
-117.073170
 30
0.000000
 11
-112.262147
 21
-117.073182
 31
0.000000
 0
LINE
 8
0
 6
CONTINUOUS
 62
7
 10
-111.446730
 20
-117.073050
 30
0.000000
 11
-111.539611
 21
-117.073065
 31
0.000000
 0
LINE
 8
0
 6
CONTINUOUS
 62
7
 10
-111.446794
 20
-116.273050
 30
0.000000
 11
-111.539611
 21
-116.273050
 31
0.000000
 0
LINE
 8
0
 6
CONTINUOUS
 62
7
 10
-118.870960
 20
-117.962650
 30
0.000000
 11
-118.862154
 21
-117.962662
 31
0.000000
 0
LINE
 8
0
 6
CONTINUOUS
 62
7
 10
-118.862154
 20
-115.384637
 30
0.000000
 11
-118.871169
 21
-115.384650
 31
0.000000
 0
LINE
 8
0
 6
CONTINUOUS
 62
7
 10
-117.914898
 20
-86.499535
 30
0.000000
 11
-117.914898
 21
-86.299535
 31
0.000000
 0
LINE
 8
0
 6
CONTINUOUS
 62
7
 10
-122.062152
 20
-86.499535
 30
0.000000
 11
-122.062152
 21
-86.299535
 31
0.000000
 0
LINE
 8
0
 6
CONTINUOUS
 62
7
 10
-117.788702
 20
-86.499535
 30
0.000000
 11
-117.788702
 21
-86.299535
 31
0.000000
 0
LINE
 8
0
 6
CONTINUOUS
 62
7
 10
-117.854253
 20
-86.299535
 30
0.000000
 11
-117.799751
 21
-86.299535
 31
0.000000
 0
LINE
 8
0
 6
CONTINUOUS
 62
7
 10
-117.799751
 20
-86.299535
 30
0.000000
 11
-117.788702
 21
-86.299535
 31
0.000000
 0
LINE
 8
0
 6
CONTINUOUS
 62
7
 10
-117.821483
 20
-86.299535
 30
0.000000
 11
-117.896977
 21
-86.299535
 31
0.000000
 0
LINE
 8
0
 6
CONTINUOUS
 62
7
 10
-118.084778
 20
-86.299535
 30
0.000000
 11
-117.950353
 21
-86.299535
 31
0.000000
 0
LINE
 8
0
 6
CONTINUOUS
 62
7
 10
-118.252949
 20
-86.299535
 30
0.000000
 11
-118.084778
 21
-86.299535
 31
0.000000
 0
LINE
 8
0
 6
CONTINUOUS
 62
7
 10
-118.012614
 20
-86.299535
 30
0.000000
 11
-118.164455
 21
-86.299535
 31
0.000000
 0
LINE
 8
0
 6
CONTINUOUS
 62
7
 10
-118.449141
 20
-86.299535
 30
0.000000
 11
-118.252949
 21
-86.299535
 31
0.000000
 0
LINE
 8
0
 6
CONTINUOUS
 62
7
 10
-118.164455
 20
-86.299535
 30
0.000000
 11
-118.347330
 21
-86.299535
 31
0.000000
 0
LINE
 8
0
 6
CONTINUOUS
 62
7
 10
-120.775774
 20
-86.299535
 30
0.000000
 11
-120.513438
 21
-86.299535
 31
0.000000
 0
LINE
 8
0
 6
CONTINUOUS
 62
7
 10
-120.513438
 20
-86.299535
 30
0.000000
 11
-120.262556
 21
-86.299535
 31
0.000000
 0
LINE
 8
0
 6
CONTINUOUS
 62
7
 10
-120.262556
 20
-86.299535
 30
0.000000
 11
-120.030922
 21
-86.299535
 31
0.000000
 0
LINE
 8
0
 6
CONTINUOUS
 62
7
 10
-120.030922
 20
-86.299535
 30
0.000000
 11
-119.825733
 21
-86.299535
 31
0.000000
 0
LINE
 8
0
 6
CONTINUOUS
 62
7
 10
-122.062152
 20
-86.299535
 30
0.000000
 11
-119.280505
 21
-86.299535
 31
0.000000
 0
LINE
 8
0
 6
CONTINUOUS
 62
7
 10
-119.280505
 20
-86.299535
 30
0.000000
 11
-119.028500
 21
-86.299535
 31
0.000000
 0
LINE
 8
0
 6
CONTINUOUS
 62
7
 10
-119.028500
 20
-86.299535
 30
0.000000
 11
-118.785077
 21
-86.299535
 31
0.000000
 0
LINE
 8
0
 6
CONTINUOUS
 62
7
 10
-118.785077
 20
-86.299535
 30
0.000000
 11
-118.558525
 21
-86.299535
 31
0.000000
 0
LINE
 8
0
 6
CONTINUOUS
 62
7
 10
-118.558525
 20
-86.299535
 30
0.000000
 11
-118.356560
 21
-86.299535
 31
0.000000
 0
LINE
 8
0
 6
CONTINUOUS
 62
7
 10
-118.356560
 20
-86.299535
 30
0.000000
 11
-118.186058
 21
-86.299535
 31
0.000000
 0
LINE
 8
0
 6
CONTINUOUS
 62
7
 10
-118.186058
 20
-86.299535
 30
0.000000
 11
-118.052826
 21
-86.299535
 31
0.000000
 0
LINE
 8
0
 6
CONTINUOUS
 62
7
 10
-118.052826
 20
-86.299535
 30
0.000000
 11
-117.961402
 21
-86.299535
 31
0.000000
 0
LINE
 8
0
 6
CONTINUOUS
 62
7
 10
-117.961402
 20
-86.299535
 30
0.000000
 11
-117.914898
 21
-86.299535
 31
0.000000
 0
LINE
 8
0
 6
CONTINUOUS
 62
7
 10
-119.280505
 20
-86.499535
 30
0.000000
 11
-122.062152
 21
-86.499535
 31
0.000000
 0
LINE
 8
0
 6
CONTINUOUS
 62
7
 10
-118.558525
 20
-86.499535
 30
0.000000
 11
-118.785077
 21
-86.499535
 31
0.000000
 0
LINE
 8
0
 6
CONTINUOUS
 62
7
 10
-118.785077
 20
-86.499535
 30
0.000000
 11
-119.028500
 21
-86.499535
 31
0.000000
 0
LINE
 8
0
 6
CONTINUOUS
 62
7
 10
-119.028500
 20
-86.499535
 30
0.000000
 11
-119.280505
 21
-86.499535
 31
0.000000
 0
LINE
 8
0
 6
CONTINUOUS
 62
7
 10
-117.950353
 20
-86.299535
 30
0.000000
 11
-117.914898
 21
-86.299535
 31
0.000000
 0
LINE
 8
0
 6
CONTINUOUS
 62
7
 10
-117.914898
 20
-86.299535
 30
0.000000
 11
-117.854253
 21
-86.299535
 31
0.000000
 0
LINE
 8
0
 6
CONTINUOUS
 62
7
 10
-117.896977
 20
-86.299535
 30
0.000000
 11
-117.914898
 21
-86.299535
 31
0.000000
 0
LINE
 8
0
 6
CONTINUOUS
 62
7
 10
-117.914898
 20
-86.299535
 30
0.000000
 11
-118.012614
 21
-86.299535
 31
0.000000
 0
LINE
 8
0
 6
CONTINUOUS
 62
7
 10
-118.347330
 20
-86.299535
 30
0.000000
 11
-118.481117
 21
-86.299535
 31
0.000000
 0
LINE
 8
0
 6
CONTINUOUS
 62
7
 10
-118.481117
 20
-86.299535
 30
0.000000
 11
-118.449141
 21
-86.299535
 31
0.000000
 0
LINE
 8
0
 6
CONTINUOUS
 62
7
 10
-119.697325
 20
-86.299535
 30
0.000000
 11
-119.954922
 21
-86.299535
 31
0.000000
 0
LINE
 8
0
 6
CONTINUOUS
 62
7
 10
-121.148145
 20
-86.299535
 30
0.000000
 11
-122.062152
 21
-86.299535
 31
0.000000
 0
LINE
 8
0
 6
CONTINUOUS
 62
7
 10
-119.825733
 20
-86.299535
 30
0.000000
 11
-119.673542
 21
-86.299535
 31
0.000000
 0
LINE
 8
0
 6
CONTINUOUS
 62
7
 10
-119.673542
 20
-86.299535
 30
0.000000
 11
-120.775774
 21
-86.299535
 31
0.000000
 0
LINE
 8
0
 6
CONTINUOUS
 62
7
 10
-119.954922
 20
-86.299535
 30
0.000000
 11
-119.673542
 21
-86.299535
 31
0.000000
 0
LINE
 8
0
 6
CONTINUOUS
 62
7
 10
-109.062152
 20
-86.499535
 30
0.000000
 11
-109.062152
 21
-86.299535
 31
0.000000
 0
LINE
 8
0
 6
CONTINUOUS
 62
7
 10
-113.209407
 20
-86.499535
 30
0.000000
 11
-113.209407
 21
-86.299535
 31
0.000000
 0
LINE
 8
0
 6
CONTINUOUS
 62
7
 10
-113.331464
 20
-86.499535
 30
0.000000
 11
-113.331464
 21
-86.299535
 31
0.000000
 0
LINE
 8
0
 6
CONTINUOUS
 62
7
 10
-109.062152
 20
-86.499535
 30
0.000000
 11
-111.843800
 21
-86.499535
 31
0.000000
 0
LINE
 8
0
 6
CONTINUOUS
 62
7
 10
-111.843800
 20
-86.499535
 30
0.000000
 11
-112.095805
 21
-86.499535
 31
0.000000
 0
LINE
 8
0
 6
CONTINUOUS
 62
7
 10
-112.095805
 20
-86.499535
 30
0.000000
 11
-112.339227
 21
-86.499535
 31
0.000000
 0
LINE
 8
0
 6
CONTINUOUS
 62
7
 10
-112.339227
 20
-86.499535
 30
0.000000
 11
-112.565779
 21
-86.499535
 31
0.000000
 0
LINE
 8
0
 6
CONTINUOUS
 62
7
 10
-113.331464
 20
-86.299535
 30
0.000000
 11
-113.287775
 21
-86.299535
 31
0.000000
 0
LINE
 8
0
 6
CONTINUOUS
 62
7
 10
-113.201885
 20
-86.299535
 30
0.000000
 11
-113.076720
 21
-86.299535
 31
0.000000
 0
LINE
 8
0
 6
CONTINUOUS
 62
7
 10
-113.076720
 20
-86.299535
 30
0.000000
 11
-112.916540
 21
-86.299535
 31
0.000000
 0
LINE
 8
0
 6
CONTINUOUS
 62
7
 10
-112.916540
 20
-86.299535
 30
0.000000
 11
-112.726802
 21
-86.299535
 31
0.000000
 0
LINE
 8
0
 6
CONTINUOUS
 62
7
 10
-110.610867
 20
-86.299535
 30
0.000000
 11
-110.348531
 21
-86.299535
 31
0.000000
 0
LINE
 8
0
 6
CONTINUOUS
 62
7
 10
-111.843800
 20
-86.299535
 30
0.000000
 11
-109.062152
 21
-86.299535
 31
0.000000
 0
LINE
 8
0
 6
CONTINUOUS
 62
7
 10
-113.209407
 20
-86.299535
 30
0.000000
 11
-113.162903
 21
-86.299535
 31
0.000000
 0
LINE
 8
0
 6
CONTINUOUS
 62
7
 10
-110.861749
 20
-86.299535
 30
0.000000
 11
-110.610867
 21
-86.299535
 31
0.000000
 0
LINE
 8
0
 6
CONTINUOUS
 62
7
 10
-111.298572
 20
-86.299535
 30
0.000000
 11
-111.093383
 21
-86.299535
 31
0.000000
 0
LINE
 8
0
 6
CONTINUOUS
 62
7
 10
-111.093383
 20
-86.299535
 30
0.000000
 11
-110.861749
 21
-86.299535
 31
0.000000
 0
LINE
 8
0
 6
CONTINUOUS
 62
7
 10
-113.162903
 20
-86.299535
 30
0.000000
 11
-113.071478
 21
-86.299535
 31
0.000000
 0
LINE
 8
0
 6
CONTINUOUS
 62
7
 10
-113.071478
 20
-86.299535
 30
0.000000
 11
-112.938246
 21
-86.299535
 31
0.000000
 0
LINE
 8
0
 6
CONTINUOUS
 62
7
 10
-112.938246
 20
-86.299535
 30
0.000000
 11
-112.767745
 21
-86.299535
 31
0.000000
 0
LINE
 8
0
 6
CONTINUOUS
 62
7
 10
-112.767745
 20
-86.299535
 30
0.000000
 11
-112.565779
 21
-86.299535
 31
0.000000
 0
LINE
 8
0
 6
CONTINUOUS
 62
7
 10
-112.565779
 20
-86.299535
 30
0.000000
 11
-112.339227
 21
-86.299535
 31
0.000000
 0
LINE
 8
0
 6
CONTINUOUS
 62
7
 10
-112.339227
 20
-86.299535
 30
0.000000
 11
-112.095805
 21
-86.299535
 31
0.000000
 0
LINE
 8
0
 6
CONTINUOUS
 62
7
 10
-112.095805
 20
-86.299535
 30
0.000000
 11
-111.843800
 21
-86.299535
 31
0.000000
 0
LINE
 8
0
 6
CONTINUOUS
 62
7
 10
-112.726802
 20
-86.299535
 30
0.000000
 11
-112.624362
 21
-86.299535
 31
0.000000
 0
LINE
 8
0
 6
CONTINUOUS
 62
7
 10
-113.287775
 20
-86.299535
 30
0.000000
 11
-113.209407
 21
-86.299535
 31
0.000000
 0
LINE
 8
0
 6
CONTINUOUS
 62
7
 10
-113.209407
 20
-86.299535
 30
0.000000
 11
-113.201885
 21
-86.299535
 31
0.000000
 0
LINE
 8
0
 6
CONTINUOUS
 62
7
 10
-111.431139
 20
-86.299535
 30
0.000000
 11
-111.181118
 21
-86.299535
 31
0.000000
 0
LINE
 8
0
 6
CONTINUOUS
 62
7
 10
-109.062152
 20
-86.299535
 30
0.000000
 11
-109.987057
 21
-86.299535
 31
0.000000
 0
LINE
 8
0
 6
CONTINUOUS
 62
7
 10
-111.181118
 20
-86.299535
 30
0.000000
 11
-111.431139
 21
-86.299535
 31
0.000000
 0
LINE
 8
0
 6
CONTINUOUS
 62
7
 10
-110.348531
 20
-86.299535
 30
0.000000
 11
-111.431139
 21
-86.299535
 31
0.000000
 0
LINE
 8
0
 6
CONTINUOUS
 62
7
 10
-111.431139
 20
-86.299535
 30
0.000000
 11
-111.298572
 21
-86.299535
 31
0.000000
 0
LINE
 8
0
 6
CONTINUOUS
 62
7
 10
-120.949749
 20
-129.499536
 30
0.000000
 11
-118.862154
 21
-129.956974
 31
0.000000
 0
LINE
 8
0
 6
CONTINUOUS
 62
7
 10
-110.162152
 20
-129.499536
 30
0.000000
 11
-112.262143
 21
-129.499536
 31
0.000000
 0
LINE
 8
0
 6
CONTINUOUS
 62
7
 10
-118.862154
 20
-129.499536
 30
0.000000
 11
-120.949749
 21
-129.499536
 31
0.000000
 0
LINE
 8
0
 6
CONTINUOUS
 62
7
 10
-112.262136
 20
-129.959689
 30
0.000000
 11
-110.162152
 21
-129.499536
 31
0.000000
 0
LINE
 8
0
 6
CONTINUOUS
 62
7
 10
-112.647303
 20
-85.799535
 30
0.000000
 11
-112.626986
 21
-85.799535
 31
0.000000
 0
LINE
 8
0
 6
CONTINUOUS
 62
7
 10
-112.587043
 20
-85.799535
 30
0.000000
 11
-112.528834
 21
-85.799535
 31
0.000000
 0
LINE
 8
0
 6
CONTINUOUS
 62
7
 10
-112.528834
 20
-85.799535
 30
0.000000
 11
-112.454342
 21
-85.799535
 31
0.000000
 0
LINE
 8
0
 6
CONTINUOUS
 62
7
 10
-112.454342
 20
-85.799535
 30
0.000000
 11
-112.366103
 21
-85.799535
 31
0.000000
 0
LINE
 8
0
 6
CONTINUOUS
 62
7
 10
-112.366103
 20
-85.799535
 30
0.000000
 11
-112.267123
 21
-85.799535
 31
0.000000
 0
LINE
 8
0
 6
CONTINUOUS
 62
7
 10
-112.267123
 20
-85.799535
 30
0.000000
 11
-112.160772
 21
-85.799535
 31
0.000000
 0
LINE
 8
0
 6
CONTINUOUS
 62
7
 10
-112.160772
 20
-85.799535
 30
0.000000
 11
-112.050672
 21
-85.799535
 31
0.000000
 0
LINE
 8
0
 6
CONTINUOUS
 62
7
 10
-112.050672
 20
-85.799535
 30
0.000000
 11
-111.940571
 21
-85.799535
 31
0.000000
 0
LINE
 8
0
 6
CONTINUOUS
 62
7
 10
-111.940571
 20
-85.799535
 30
0.000000
 11
-111.834220
 21
-85.799535
 31
0.000000
 0
LINE
 8
0
 6
CONTINUOUS
 62
7
 10
-111.834220
 20
-85.799535
 30
0.000000
 11
-111.735240
 21
-85.799535
 31
0.000000
 0
LINE
 8
0
 6
CONTINUOUS
 62
7
 10
-111.735240
 20
-85.799535
 30
0.000000
 11
-111.647001
 21
-85.799535
 31
0.000000
 0
LINE
 8
0
 6
CONTINUOUS
 62
7
 10
-111.647001
 20
-85.799535
 30
0.000000
 11
-111.572509
 21
-85.799535
 31
0.000000
 0
LINE
 8
0
 6
CONTINUOUS
 62
7
 10
-111.572509
 20
-85.799535
 30
0.000000
 11
-111.514301
 21
-85.799535
 31
0.000000
 0
LINE
 8
0
 6
CONTINUOUS
 62
7
 10
-111.514301
 20
-85.799535
 30
0.000000
 11
-111.474357
 21
-85.799535
 31
0.000000
 0
LINE
 8
0
 6
CONTINUOUS
 62
7
 10
-111.474357
 20
-85.799535
 30
0.000000
 11
-111.454040
 21
-85.799535
 31
0.000000
 0
LINE
 8
0
 6
CONTINUOUS
 62
7
 10
-111.181118
 20
-85.799535
 30
0.000000
 11
-111.160787
 21
-85.799535
 31
0.000000
 0
LINE
 8
0
 6
CONTINUOUS
 62
7
 10
-111.160787
 20
-85.799535
 30
0.000000
 11
-111.120817
 21
-85.799535
 31
0.000000
 0
LINE
 8
0
 6
CONTINUOUS
 62
7
 10
-111.120817
 20
-85.799535
 30
0.000000
 11
-111.062569
 21
-85.799535
 31
0.000000
 0
LINE
 8
0
 6
CONTINUOUS
 62
7
 10
-111.062569
 20
-85.799535
 30
0.000000
 11
-110.988028
 21
-85.799535
 31
0.000000
 0
LINE
 8
0
 6
CONTINUOUS
 62
7
 10
-110.988028
 20
-85.799535
 30
0.000000
 11
-110.899730
 21
-85.799535
 31
0.000000
 0
LINE
 8
0
 6
CONTINUOUS
 62
7
 10
-110.899730
 20
-85.799535
 30
0.000000
 11
-110.800684
 21
-85.799535
 31
0.000000
 0
LINE
 8
0
 6
CONTINUOUS
 62
7
 10
-110.800684
 20
-85.799535
 30
0.000000
 11
-110.694262
 21
-85.799535
 31
0.000000
 0
LINE
 8
0
 6
CONTINUOUS
 62
7
 10
-110.694262
 20
-85.799535
 30
0.000000
 11
-110.584088
 21
-85.799535
 31
0.000000
 0
LINE
 8
0
 6
CONTINUOUS
 62
7
 10
-110.584088
 20
-85.799535
 30
0.000000
 11
-110.473914
 21
-85.799535
 31
0.000000
 0
LINE
 8
0
 6
CONTINUOUS
 62
7
 10
-110.473914
 20
-85.799535
 30
0.000000
 11
-110.367491
 21
-85.799535
 31
0.000000
 0
LINE
 8
0
 6
CONTINUOUS
 62
7
 10
-110.367491
 20
-85.799535
 30
0.000000
 11
-110.268445
 21
-85.799535
 31
0.000000
 0
LINE
 8
0
 6
CONTINUOUS
 62
7
 10
-110.268445
 20
-85.799535
 30
0.000000
 11
-110.180148
 21
-85.799535
 31
0.000000
 0
LINE
 8
0
 6
CONTINUOUS
 62
7
 10
-110.180148
 20
-85.799535
 30
0.000000
 11
-110.105606
 21
-85.799535
 31
0.000000
 0
LINE
 8
0
 6
CONTINUOUS
 62
7
 10
-110.105606
 20
-85.799535
 30
0.000000
 11
-110.047358
 21
-85.799535
 31
0.000000
 0
LINE
 8
0
 6
CONTINUOUS
 62
7
 10
-110.047358
 20
-85.799535
 30
0.000000
 11
-110.007388
 21
-85.799535
 31
0.000000
 0
LINE
 8
0
 6
CONTINUOUS
 62
7
 10
-110.007388
 20
-85.799535
 30
0.000000
 11
-109.987057
 21
-85.799535
 31
0.000000
 0
LINE
 8
0
 6
CONTINUOUS
 62
7
 10
-119.673542
 20
-85.799535
 30
0.000000
 11
-119.653239
 21
-85.799535
 31
0.000000
 0
LINE
 8
0
 6
CONTINUOUS
 62
7
 10
-119.653239
 20
-85.799535
 30
0.000000
 11
-119.613323
 21
-85.799535
 31
0.000000
 0
LINE
 8
0
 6
CONTINUOUS
 62
7
 10
-119.613323
 20
-85.799535
 30
0.000000
 11
-119.555156
 21
-85.799535
 31
0.000000
 0
LINE
 8
0
 6
CONTINUOUS
 62
7
 10
-119.555156
 20
-85.799535
 30
0.000000
 11
-119.480716
 21
-85.799535
 31
0.000000
 0
LINE
 8
0
 6
CONTINUOUS
 62
7
 10
-119.480716
 20
-85.799535
 30
0.000000
 11
-119.392539
 21
-85.799535
 31
0.000000
 0
LINE
 8
0
 6
CONTINUOUS
 62
7
 10
-119.392539
 20
-85.799535
 30
0.000000
 11
-119.293629
 21
-85.799535
 31
0.000000
 0
LINE
 8
0
 6
CONTINUOUS
 62
7
 10
-119.293629
 20
-85.799535
 30
0.000000
 11
-119.187353
 21
-85.799535
 31
0.000000
 0
LINE
 8
0
 6
CONTINUOUS
 62
7
 10
-119.187353
 20
-85.799535
 30
0.000000
 11
-119.077329
 21
-85.799535
 31
0.000000
 0
LINE
 8
0
 6
CONTINUOUS
 62
7
 10
-119.077329
 20
-85.799535
 30
0.000000
 11
-118.967306
 21
-85.799535
 31
0.000000
 0
LINE
 8
0
 6
CONTINUOUS
 62
7
 10
-118.967306
 20
-85.799535
 30
0.000000
 11
-118.861030
 21
-85.799535
 31
0.000000
 0
LINE
 8
0
 6
CONTINUOUS
 62
7
 10
-118.861030
 20
-85.799535
 30
0.000000
 11
-118.762119
 21
-85.799535
 31
0.000000
 0
LINE
 8
0
 6
CONTINUOUS
 62
7
 10
-118.762119
 20
-85.799535
 30
0.000000
 11
-118.673943
 21
-85.799535
 31
0.000000
 0
LINE
 8
0
 6
CONTINUOUS
 62
7
 10
-118.673943
 20
-85.799535
 30
0.000000
 11
-118.599503
 21
-85.799535
 31
0.000000
 0
LINE
 8
0
 6
CONTINUOUS
 62
7
 10
-118.599503
 20
-85.799535
 30
0.000000
 11
-118.541336
 21
-85.799535
 31
0.000000
 0
LINE
 8
0
 6
CONTINUOUS
 62
7
 10
-118.541336
 20
-85.799535
 30
0.000000
 11
-118.501420
 21
-85.799535
 31
0.000000
 0
LINE
 8
0
 6
CONTINUOUS
 62
7
 10
-118.501420
 20
-85.799535
 30
0.000000
 11
-118.481117
 21
-85.799535
 31
0.000000
 0
LINE
 8
0
 6
CONTINUOUS
 62
7
 10
-112.624362
 20
-85.799535
 30
0.000000
 11
-112.604045
 21
-85.799535
 31
0.000000
 0
LINE
 8
0
 6
CONTINUOUS
 62
7
 10
-112.604045
 20
-85.799535
 30
0.000000
 11
-112.564103
 21
-85.799535
 31
0.000000
 0
LINE
 8
0
 6
CONTINUOUS
 62
7
 10
-112.564103
 20
-85.799535
 30
0.000000
 11
-112.505896
 21
-85.799535
 31
0.000000
 0
LINE
 8
0
 6
CONTINUOUS
 62
7
 10
-112.505896
 20
-85.799535
 30
0.000000
 11
-112.431407
 21
-85.799535
 31
0.000000
 0
LINE
 8
0
 6
CONTINUOUS
 62
7
 10
-112.431407
 20
-85.799535
 30
0.000000
 11
-112.343171
 21
-85.799535
 31
0.000000
 0
LINE
 8
0
 6
CONTINUOUS
 62
7
 10
-112.343171
 20
-85.799535
 30
0.000000
 11
-112.244195
 21
-85.799535
 31
0.000000
 0
LINE
 8
0
 6
CONTINUOUS
 62
7
 10
-112.244195
 20
-85.799535
 30
0.000000
 11
-112.137847
 21
-85.799535
 31
0.000000
 0
LINE
 8
0
 6
CONTINUOUS
 62
7
 10
-112.137847
 20
-85.799535
 30
0.000000
 11
-112.027750
 21
-85.799535
 31
0.000000
 0
LINE
 8
0
 6
CONTINUOUS
 62
7
 10
-112.027750
 20
-85.799535
 30
0.000000
 11
-111.917654
 21
-85.799535
 31
0.000000
 0
LINE
 8
0
 6
CONTINUOUS
 62
7
 10
-111.917654
 20
-85.799535
 30
0.000000
 11
-111.811306
 21
-85.799535
 31
0.000000
 0
LINE
 8
0
 6
CONTINUOUS
 62
7
 10
-111.811306
 20
-85.799535
 30
0.000000
 11
-111.712329
 21
-85.799535
 31
0.000000
 0
LINE
 8
0
 6
CONTINUOUS
 62
7
 10
-111.712329
 20
-85.799535
 30
0.000000
 11
-111.624094
 21
-85.799535
 31
0.000000
 0
LINE
 8
0
 6
CONTINUOUS
 62
7
 10
-111.624094
 20
-85.799535
 30
0.000000
 11
-111.549604
 21
-85.799535
 31
0.000000
 0
LINE
 8
0
 6
CONTINUOUS
 62
7
 10
-111.549604
 20
-85.799535
 30
0.000000
 11
-111.491398
 21
-85.799535
 31
0.000000
 0
LINE
 8
0
 6
CONTINUOUS
 62
7
 10
-111.491398
 20
-85.799535
 30
0.000000
 11
-111.451456
 21
-85.799535
 31
0.000000
 0
LINE
 8
0
 6
CONTINUOUS
 62
7
 10
-111.451456
 20
-85.799535
 30
0.000000
 11
-111.431139
 21
-85.799535
 31
0.000000
 0
LINE
 8
0
 6
CONTINUOUS
 62
7
 10
-121.148145
 20
-85.799535
 30
0.000000
 11
-121.127828
 21
-85.799535
 31
0.000000
 0
LINE
 8
0
 6
CONTINUOUS
 62
7
 10
-121.127828
 20
-85.799535
 30
0.000000
 11
-121.087886
 21
-85.799535
 31
0.000000
 0
LINE
 8
0
 6
CONTINUOUS
 62
7
 10
-121.087886
 20
-85.799535
 30
0.000000
 11
-121.029679
 21
-85.799535
 31
0.000000
 0
LINE
 8
0
 6
CONTINUOUS
 62
7
 10
-121.029679
 20
-85.799535
 30
0.000000
 11
-120.955190
 21
-85.799535
 31
0.000000
 0
LINE
 8
0
 6
CONTINUOUS
 62
7
 10
-120.955190
 20
-85.799535
 30
0.000000
 11
-120.866954
 21
-85.799535
 31
0.000000
 0
LINE
 8
0
 6
CONTINUOUS
 62
7
 10
-120.866954
 20
-85.799535
 30
0.000000
 11
-120.767977
 21
-85.799535
 31
0.000000
 0
LINE
 8
0
 6
CONTINUOUS
 62
7
 10
-120.767977
 20
-85.799535
 30
0.000000
 11
-120.661630
 21
-85.799535
 31
0.000000
 0
LINE
 8
0
 6
CONTINUOUS
 62
7
 10
-120.661630
 20
-85.799535
 30
0.000000
 11
-120.551533
 21
-85.799535
 31
0.000000
 0
LINE
 8
0
 6
CONTINUOUS
 62
7
 10
-120.551533
 20
-85.799535
 30
0.000000
 11
-120.441437
 21
-85.799535
 31
0.000000
 0
LINE
 8
0
 6
CONTINUOUS
 62
7
 10
-120.441437
 20
-85.799535
 30
0.000000
 11
-120.335089
 21
-85.799535
 31
0.000000
 0
LINE
 8
0
 6
CONTINUOUS
 62
7
 10
-120.335089
 20
-85.799535
 30
0.000000
 11
-120.236112
 21
-85.799535
 31
0.000000
 0
LINE
 8
0
 6
CONTINUOUS
 62
7
 10
-120.236112
 20
-85.799535
 30
0.000000
 11
-120.147877
 21
-85.799535
 31
0.000000
 0
LINE
 8
0
 6
CONTINUOUS
 62
7
 10
-120.147877
 20
-85.799535
 30
0.000000
 11
-120.073387
 21
-85.799535
 31
0.000000
 0
LINE
 8
0
 6
CONTINUOUS
 62
7
 10
-120.073387
 20
-85.799535
 30
0.000000
 11
-120.015181
 21
-85.799535
 31
0.000000
 0
LINE
 8
0
 6
CONTINUOUS
 62
7
 10
-120.015181
 20
-85.799535
 30
0.000000
 11
-119.975239
 21
-85.799535
 31
0.000000
 0
LINE
 8
0
 6
CONTINUOUS
 62
7
 10
-119.975239
 20
-85.799535
 30
0.000000
 11
-119.954922
 21
-85.799535
 31
0.000000
 0
LINE
 8
0
 6
CONTINUOUS
 62
7
 10
-119.697325
 20
-85.799535
 30
0.000000
 11
-119.677021
 21
-85.799535
 31
0.000000
 0
LINE
 8
0
 6
CONTINUOUS
 62
7
 10
-119.637106
 20
-85.799535
 30
0.000000
 11
-119.578938
 21
-85.799535
 31
0.000000
 0
LINE
 8
0
 6
CONTINUOUS
 62
7
 10
-119.578938
 20
-85.799535
 30
0.000000
 11
-119.504499
 21
-85.799535
 31
0.000000
 0
LINE
 8
0
 6
CONTINUOUS
 62
7
 10
-119.504499
 20
-85.799535
 30
0.000000
 11
-119.416322
 21
-85.799535
 31
0.000000
 0
LINE
 8
0
 6
CONTINUOUS
 62
7
 10
-119.416322
 20
-85.799535
 30
0.000000
 11
-119.317412
 21
-85.799535
 31
0.000000
 0
LINE
 8
0
 6
CONTINUOUS
 62
7
 10
-119.317412
 20
-85.799535
 30
0.000000
 11
-119.211135
 21
-85.799535
 31
0.000000
 0
LINE
 8
0
 6
CONTINUOUS
 62
7
 10
-119.211135
 20
-85.799535
 30
0.000000
 11
-119.101112
 21
-85.799535
 31
0.000000
 0
LINE
 8
0
 6
CONTINUOUS
 62
7
 10
-119.101112
 20
-85.799535
 30
0.000000
 11
-118.991089
 21
-85.799535
 31
0.000000
 0
LINE
 8
0
 6
CONTINUOUS
 62
7
 10
-118.991089
 20
-85.799535
 30
0.000000
 11
-118.884813
 21
-85.799535
 31
0.000000
 0
LINE
 8
0
 6
CONTINUOUS
 62
7
 10
-118.884813
 20
-85.799535
 30
0.000000
 11
-118.785902
 21
-85.799535
 31
0.000000
 0
LINE
 8
0
 6
CONTINUOUS
 62
7
 10
-118.785902
 20
-85.799535
 30
0.000000
 11
-118.697726
 21
-85.799535
 31
0.000000
 0
LINE
 8
0
 6
CONTINUOUS
 62
7
 10
-118.697726
 20
-85.799535
 30
0.000000
 11
-118.623286
 21
-85.799535
 31
0.000000
 0
LINE
 8
0
 6
CONTINUOUS
 62
7
 10
-118.623286
 20
-85.799535
 30
0.000000
 11
-118.565118
 21
-85.799535
 31
0.000000
 0
LINE
 8
0
 6
CONTINUOUS
 62
7
 10
-118.565118
 20
-85.799535
 30
0.000000
 11
-118.525203
 21
-85.799535
 31
0.000000
 0
LINE
 8
0
 6
CONTINUOUS
 62
7
 10
-118.525203
 20
-85.799535
 30
0.000000
 11
-118.504900
 21
-85.799535
 31
0.000000
 0
LINE
 8
0
 6
CONTINUOUS
 62
7
 10
-112.647303
 20
-85.799535
 30
0.000000
 11
-112.647303
 21
-86.299535
 31
0.000000
 0
LINE
 8
0
 6
CONTINUOUS
 62
7
 10
-112.626986
 20
-85.799535
 30
0.000000
 11
-112.624362
 21
-85.799535
 31
0.000000
 0
LINE
 8
0
 6
CONTINUOUS
 62
7
 10
-112.624362
 20
-85.799535
 30
0.000000
 11
-112.587043
 21
-85.799535
 31
0.000000
 0
LINE
 8
0
 6
CONTINUOUS
 62
7
 10
-109.987057
 20
-85.799535
 30
0.000000
 11
-109.987057
 21
-86.299535
 31
0.000000
 0
LINE
 8
0
 6
CONTINUOUS
 62
7
 10
-111.181118
 20
-85.799535
 30
0.000000
 11
-111.181118
 21
-86.299535
 31
0.000000
 0
LINE
 8
0
 6
CONTINUOUS
 62
7
 10
-118.481117
 20
-85.799535
 30
0.000000
 11
-118.481117
 21
-86.299535
 31
0.000000
 0
LINE
 8
0
 6
CONTINUOUS
 62
7
 10
-119.673542
 20
-85.799535
 30
0.000000
 11
-119.673542
 21
-86.299535
 31
0.000000
 0
LINE
 8
0
 6
CONTINUOUS
 62
7
 10
-111.431139
 20
-85.799535
 30
0.000000
 11
-111.431139
 21
-86.299535
 31
0.000000
 0
LINE
 8
0
 6
CONTINUOUS
 62
7
 10
-112.624362
 20
-85.799535
 30
0.000000
 11
-112.624362
 21
-86.299535
 31
0.000000
 0
LINE
 8
0
 6
CONTINUOUS
 62
7
 10
-119.954922
 20
-85.799535
 30
0.000000
 11
-119.954922
 21
-86.299535
 31
0.000000
 0
LINE
 8
0
 6
CONTINUOUS
 62
7
 10
-121.148145
 20
-85.799535
 30
0.000000
 11
-121.148145
 21
-86.299535
 31
0.000000
 0
LINE
 8
0
 6
CONTINUOUS
 62
7
 10
-119.697325
 20
-85.799535
 30
0.000000
 11
-119.697325
 21
-86.299535
 31
0.000000
 0
LINE
 8
0
 6
CONTINUOUS
 62
7
 10
-119.677021
 20
-85.799535
 30
0.000000
 11
-119.673542
 21
-85.799535
 31
0.000000
 0
LINE
 8
0
 6
CONTINUOUS
 62
7
 10
-119.673542
 20
-85.799535
 30
0.000000
 11
-119.637106
 21
-85.799535
 31
0.000000
 0
LINE
 8
0
 6
CONTINUOUS
 62
7
 10
-110.162152
 20
-129.499536
 30
0.000000
 11
-110.162152
 21
-124.999536
 31
0.000000
 0
LINE
 8
0
 6
CONTINUOUS
 62
7
 10
-110.162152
 20
-101.999536
 30
0.000000
 11
-110.162152
 21
-124.999536
 31
0.000000
 0
LINE
 8
0
 6
CONTINUOUS
 62
7
 10
-109.062154
 20
-86.499535
 30
0.000000
 11
-109.075759
 21
-94.999911
 31
0.000000
 0
LINE
 8
0
 6
CONTINUOUS
 62
7
 10
-109.075759
 20
-94.999911
 30
0.000000
 11
-112.562152
 21
-94.999911
 31
0.000000
 0
LINE
 8
0
 6
CONTINUOUS
 62
7
 10
-109.086962
 20
-101.999536
 30
0.000000
 11
-109.075759
 21
-94.999911
 31
0.000000
 0
LINE
 8
0
 6
CONTINUOUS
 62
7
 10
-110.162152
 20
-129.499536
 30
0.000000
 11
-110.162152
 21
-101.999536
 31
0.000000
 0
LINE
 8
0
 6
CONTINUOUS
 62
7
 10
-110.162152
 20
-101.999536
 30
0.000000
 11
-109.086962
 21
-101.999536
 31
0.000000
 0
LINE
 8
0
 6
CONTINUOUS
 62
7
 10
-122.062152
 20
-86.499535
 30
0.000000
 11
-122.062152
 21
-94.999911
 31
0.000000
 0
LINE
 8
0
 6
CONTINUOUS
 62
7
 10
-118.562152
 20
-94.999911
 30
0.000000
 11
-122.062152
 21
-94.999911
 31
0.000000
 0
LINE
 8
0
 6
CONTINUOUS
 62
7
 10
-120.962152
 20
-101.999536
 30
0.000000
 11
-120.962152
 21
-129.499536
 31
0.000000
 0
LINE
 8
0
 6
CONTINUOUS
 62
7
 10
-122.062152
 20
-101.999536
 30
0.000000
 11
-120.962152
 21
-101.999536
 31
0.000000
 0
LINE
 8
0
 6
CONTINUOUS
 62
7
 10
-122.062152
 20
-94.999911
 30
0.000000
 11
-122.062152
 21
-101.999536
 31
0.000000
 0
LINE
 8
0
 6
CONTINUOUS
 62
7
 10
-109.062154
 20
-86.499535
 30
0.000000
 11
-109.543635
 21
-86.499535
 31
0.000000
 0
LINE
 8
0
 6
CONTINUOUS
 62
7
 10
-109.543635
 20
-86.499535
 30
0.000000
 11
-122.062152
 21
-86.499535
 31
0.000000
 0
LINE
 8
0
 6
CONTINUOUS
 62
7
 10
-112.562152
 20
-94.999911
 30
0.000000
 11
-112.562152
 21
-111.633101
 31
0.000000
 0
LINE
 8
0
 6
CONTINUOUS
 62
7
 10
-112.262143
 20
-129.499536
 30
0.000000
 11
-110.162152
 21
-129.499536
 31
0.000000
 0
LINE
 8
0
 6
CONTINUOUS
 62
7
 10
-118.562152
 20
-111.633099
 30
0.000000
 11
-118.562152
 21
-94.999911
 31
0.000000
 0
LINE
 8
0
 6
CONTINUOUS
 62
7
 10
-120.962152
 20
-129.499536
 30
0.000000
 11
-118.862154
 21
-129.499536
 31
0.000000
 0
ENDSEC
 0
EOF
