 0
SECTION
 2
HEADER
 0
ENDSEC
 0
SECTION
 2
TABLES
 0
TABLE
 2
LTYPE
 70
1
 0
ENDTAB
 0
TABLE
 2
LAYER
 70
1
 0
LAYER
 2
0
 70
0
 62
7
 6
CONTINUOUS
 0
ENDTAB
 0
TABLE
 2
STYLE
 70
1
 0
STYLE
 2
STANDARD
 70
0
 40
0.500000
 41
1.000000
 50
30.000000
 71
0
 42
0.500000
 3
txt
 4

 0
ENDTAB
 0
ENDSEC
 0
SECTION
 2
ENTITIES
 0
LINE
 8
0
 6
CONTINUOUS
 62
7
 10
-58.148656
 20
-127.499990
 30
0.000000
 11
-58.148656
 21
-128.999990
 31
0.000000
 0
LINE
 8
0
 6
CONTINUOUS
 62
7
 10
-57.498656
 20
-127.499990
 30
0.000000
 11
-57.498656
 21
-128.999990
 31
0.000000
 0
LINE
 8
0
 6
CONTINUOUS
 62
7
 10
-60.098656
 20
-127.499990
 30
0.000000
 11
-60.098656
 21
-128.999990
 31
0.000000
 0
LINE
 8
0
 6
CONTINUOUS
 62
7
 10
-58.148656
 20
-128.999990
 30
0.000000
 11
-59.448656
 21
-128.999990
 31
0.000000
 0
LINE
 8
0
 6
CONTINUOUS
 62
7
 10
-59.448656
 20
-128.999990
 30
0.000000
 11
-60.098656
 21
-128.999990
 31
0.000000
 0
LINE
 8
0
 6
CONTINUOUS
 62
7
 10
-57.498656
 20
-128.999990
 30
0.000000
 11
-58.148656
 21
-128.999990
 31
0.000000
 0
LINE
 8
0
 6
CONTINUOUS
 62
7
 10
-59.448656
 20
-128.999990
 30
0.000000
 11
-59.448656
 21
-127.499990
 31
0.000000
 0
LINE
 8
0
 6
CONTINUOUS
 62
7
 10
-60.905055
 20
-147.153793
 30
0.000000
 11
-60.905055
 21
-146.899989
 31
0.000000
 0
LINE
 8
0
 6
CONTINUOUS
 62
7
 10
-60.955918
 20
-148.910484
 30
0.000000
 11
-60.905055
 21
-148.638392
 31
0.000000
 0
LINE
 8
0
 6
CONTINUOUS
 62
7
 10
-60.905055
 20
-148.273442
 30
0.000000
 11
-60.905055
 21
-148.638392
 31
0.000000
 0
LINE
 8
0
 6
CONTINUOUS
 62
7
 10
-63.892258
 20
-148.638392
 30
0.000000
 11
-63.841395
 21
-148.910484
 31
0.000000
 0
LINE
 8
0
 6
CONTINUOUS
 62
7
 10
-63.841395
 20
-148.910484
 30
0.000000
 11
-63.741401
 21
-149.168597
 31
0.000000
 0
LINE
 8
0
 6
CONTINUOUS
 62
7
 10
-63.741401
 20
-149.168597
 30
0.000000
 11
-63.595682
 21
-149.403941
 31
0.000000
 0
LINE
 8
0
 6
CONTINUOUS
 62
7
 10
-63.595682
 20
-149.403941
 30
0.000000
 11
-63.409200
 21
-149.608503
 31
0.000000
 0
LINE
 8
0
 6
CONTINUOUS
 62
7
 10
-63.409200
 20
-149.608503
 30
0.000000
 11
-63.188305
 21
-149.775315
 31
0.000000
 0
LINE
 8
0
 6
CONTINUOUS
 62
7
 10
-63.188305
 20
-149.775315
 30
0.000000
 11
-62.940519
 21
-149.898698
 31
0.000000
 0
LINE
 8
0
 6
CONTINUOUS
 62
7
 10
-62.940519
 20
-149.898698
 30
0.000000
 11
-62.674281
 21
-149.974449
 31
0.000000
 0
LINE
 8
0
 6
CONTINUOUS
 62
7
 10
-62.674281
 20
-149.974449
 30
0.000000
 11
-62.398656
 21
-149.999989
 31
0.000000
 0
LINE
 8
0
 6
CONTINUOUS
 62
7
 10
-62.398656
 20
-149.999989
 30
0.000000
 11
-62.123032
 21
-149.974449
 31
0.000000
 0
LINE
 8
0
 6
CONTINUOUS
 62
7
 10
-62.123032
 20
-149.974449
 30
0.000000
 11
-61.856794
 21
-149.898698
 31
0.000000
 0
LINE
 8
0
 6
CONTINUOUS
 62
7
 10
-61.856794
 20
-149.898698
 30
0.000000
 11
-61.609008
 21
-149.775315
 31
0.000000
 0
LINE
 8
0
 6
CONTINUOUS
 62
7
 10
-61.609008
 20
-149.775315
 30
0.000000
 11
-61.388113
 21
-149.608503
 31
0.000000
 0
LINE
 8
0
 6
CONTINUOUS
 62
7
 10
-61.388113
 20
-149.608503
 30
0.000000
 11
-61.201631
 21
-149.403941
 31
0.000000
 0
LINE
 8
0
 6
CONTINUOUS
 62
7
 10
-61.201631
 20
-149.403941
 30
0.000000
 11
-61.055911
 21
-149.168597
 31
0.000000
 0
LINE
 8
0
 6
CONTINUOUS
 62
7
 10
-61.055911
 20
-149.168597
 30
0.000000
 11
-60.955918
 21
-148.910484
 31
0.000000
 0
LINE
 8
0
 6
CONTINUOUS
 62
7
 10
-63.892258
 20
-147.153793
 30
0.000000
 11
-63.892258
 21
-146.899989
 31
0.000000
 0
LINE
 8
0
 6
CONTINUOUS
 62
7
 10
-60.905055
 20
-147.630788
 30
0.000000
 11
-60.905055
 21
-147.153793
 31
0.000000
 0
LINE
 8
0
 6
CONTINUOUS
 62
7
 10
-60.905055
 20
-148.273442
 30
0.000000
 11
-60.905055
 21
-148.019638
 31
0.000000
 0
LINE
 8
0
 6
CONTINUOUS
 62
7
 10
-60.905055
 20
-148.019638
 30
0.000000
 11
-60.905055
 21
-147.630788
 31
0.000000
 0
LINE
 8
0
 6
CONTINUOUS
 62
7
 10
-63.892258
 20
-148.273442
 30
0.000000
 11
-63.892258
 21
-148.638392
 31
0.000000
 0
LINE
 8
0
 6
CONTINUOUS
 62
7
 10
-63.892258
 20
-148.273442
 30
0.000000
 11
-63.892258
 21
-148.019638
 31
0.000000
 0
LINE
 8
0
 6
CONTINUOUS
 62
7
 10
-63.892258
 20
-147.153793
 30
0.000000
 11
-63.892258
 21
-147.630788
 31
0.000000
 0
LINE
 8
0
 6
CONTINUOUS
 62
7
 10
-63.892258
 20
-148.019638
 30
0.000000
 11
-63.892258
 21
-147.630788
 31
0.000000
 0
LINE
 8
0
 6
CONTINUOUS
 62
7
 10
-63.892258
 20
-146.085069
 30
0.000000
 11
-63.892258
 21
-146.899989
 31
0.000000
 0
LINE
 8
0
 6
CONTINUOUS
 62
7
 10
-60.905055
 20
-146.085069
 30
0.000000
 11
-60.905055
 21
-146.899989
 31
0.000000
 0
LINE
 8
0
 6
CONTINUOUS
 62
7
 10
-63.609450
 20
-146.085069
 30
0.000000
 11
-62.821280
 21
-146.085069
 31
0.000000
 0
LINE
 8
0
 6
CONTINUOUS
 62
7
 10
-64.234096
 20
-146.085069
 30
0.000000
 11
-63.609450
 21
-146.085069
 31
0.000000
 0
LINE
 8
0
 6
CONTINUOUS
 62
7
 10
-62.821280
 20
-146.085069
 30
0.000000
 11
-62.398656
 21
-146.085069
 31
0.000000
 0
LINE
 8
0
 6
CONTINUOUS
 62
7
 10
-62.398656
 20
-146.085069
 30
0.000000
 11
-61.976033
 21
-146.085069
 31
0.000000
 0
LINE
 8
0
 6
CONTINUOUS
 62
7
 10
-61.976033
 20
-146.085069
 30
0.000000
 11
-61.187862
 21
-146.085069
 31
0.000000
 0
LINE
 8
0
 6
CONTINUOUS
 62
7
 10
-61.187862
 20
-146.085069
 30
0.000000
 11
-60.563217
 21
-146.085069
 31
0.000000
 0
LINE
 8
0
 6
CONTINUOUS
 62
7
 10
-60.563217
 20
-146.085069
 30
0.000000
 11
-60.186457
 21
-146.085069
 31
0.000000
 0
LINE
 8
0
 6
CONTINUOUS
 62
7
 10
-60.108468
 20
-146.085069
 30
0.000000
 11
-60.108468
 21
-144.002297
 31
0.000000
 0
LINE
 8
0
 6
CONTINUOUS
 62
7
 10
-60.186457
 20
-146.085069
 30
0.000000
 11
-60.108468
 21
-146.085069
 31
0.000000
 0
LINE
 8
0
 6
CONTINUOUS
 62
7
 10
-60.108468
 20
-146.085069
 30
0.000000
 11
-60.339781
 21
-146.085069
 31
0.000000
 0
LINE
 8
0
 6
CONTINUOUS
 62
7
 10
-60.339781
 20
-146.085069
 30
0.000000
 11
-60.849156
 21
-146.085069
 31
0.000000
 0
LINE
 8
0
 6
CONTINUOUS
 62
7
 10
-63.948156
 20
-146.085069
 30
0.000000
 11
-64.457532
 21
-146.085069
 31
0.000000
 0
LINE
 8
0
 6
CONTINUOUS
 62
7
 10
-64.688845
 20
-146.085069
 30
0.000000
 11
-64.688845
 21
-144.002297
 31
0.000000
 0
LINE
 8
0
 6
CONTINUOUS
 62
7
 10
-64.457532
 20
-146.085069
 30
0.000000
 11
-64.688845
 21
-146.085069
 31
0.000000
 0
LINE
 8
0
 6
CONTINUOUS
 62
7
 10
-64.688845
 20
-146.085069
 30
0.000000
 11
-64.610855
 21
-146.085069
 31
0.000000
 0
LINE
 8
0
 6
CONTINUOUS
 62
7
 10
-64.610855
 20
-146.085069
 30
0.000000
 11
-64.234096
 21
-146.085069
 31
0.000000
 0
LINE
 8
0
 6
CONTINUOUS
 62
7
 10
-62.821280
 20
-144.002297
 30
0.000000
 11
-62.398656
 21
-144.002297
 31
0.000000
 0
LINE
 8
0
 6
CONTINUOUS
 62
7
 10
-63.609450
 20
-144.002297
 30
0.000000
 11
-62.821280
 21
-144.002297
 31
0.000000
 0
LINE
 8
0
 6
CONTINUOUS
 62
7
 10
-64.234096
 20
-144.002297
 30
0.000000
 11
-63.609450
 21
-144.002297
 31
0.000000
 0
LINE
 8
0
 6
CONTINUOUS
 62
7
 10
-64.688845
 20
-144.002297
 30
0.000000
 11
-64.610855
 21
-144.002297
 31
0.000000
 0
LINE
 8
0
 6
CONTINUOUS
 62
7
 10
-64.610855
 20
-144.002297
 30
0.000000
 11
-64.234096
 21
-144.002297
 31
0.000000
 0
LINE
 8
0
 6
CONTINUOUS
 62
7
 10
-60.563217
 20
-144.002297
 30
0.000000
 11
-60.186457
 21
-144.002297
 31
0.000000
 0
LINE
 8
0
 6
CONTINUOUS
 62
7
 10
-60.186457
 20
-144.002297
 30
0.000000
 11
-60.108468
 21
-144.002297
 31
0.000000
 0
LINE
 8
0
 6
CONTINUOUS
 62
7
 10
-61.187862
 20
-144.002297
 30
0.000000
 11
-60.563217
 21
-144.002297
 31
0.000000
 0
LINE
 8
0
 6
CONTINUOUS
 62
7
 10
-61.976033
 20
-144.002297
 30
0.000000
 11
-61.187862
 21
-144.002297
 31
0.000000
 0
LINE
 8
0
 6
CONTINUOUS
 62
7
 10
-62.398656
 20
-144.002297
 30
0.000000
 11
-61.976033
 21
-144.002297
 31
0.000000
 0
LINE
 8
0
 6
CONTINUOUS
 62
7
 10
-60.849156
 20
-146.085069
 30
0.000000
 11
-60.905055
 21
-146.085069
 31
0.000000
 0
LINE
 8
0
 6
CONTINUOUS
 62
7
 10
-63.892258
 20
-146.085069
 30
0.000000
 11
-63.948156
 21
-146.085069
 31
0.000000
 0
LINE
 8
0
 6
CONTINUOUS
 62
7
 10
-64.033760
 20
-98.999992
 30
0.000000
 11
-64.098656
 21
-98.999992
 31
0.000000
 0
LINE
 8
0
 6
CONTINUOUS
 62
7
 10
-63.755286
 20
-98.999992
 30
0.000000
 11
-64.033760
 21
-98.999992
 31
0.000000
 0
LINE
 8
0
 6
CONTINUOUS
 62
7
 10
-63.293591
 20
-98.999992
 30
0.000000
 11
-63.755286
 21
-98.999992
 31
0.000000
 0
LINE
 8
0
 6
CONTINUOUS
 62
7
 10
-62.711031
 20
-98.999992
 30
0.000000
 11
-63.293591
 21
-98.999992
 31
0.000000
 0
LINE
 8
0
 6
CONTINUOUS
 62
7
 10
-62.086282
 20
-98.999992
 30
0.000000
 11
-62.711031
 21
-98.999992
 31
0.000000
 0
LINE
 8
0
 6
CONTINUOUS
 62
7
 10
-61.503722
 20
-98.999992
 30
0.000000
 11
-62.086282
 21
-98.999992
 31
0.000000
 0
LINE
 8
0
 6
CONTINUOUS
 62
7
 10
-61.042027
 20
-98.999992
 30
0.000000
 11
-61.503722
 21
-98.999992
 31
0.000000
 0
LINE
 8
0
 6
CONTINUOUS
 62
7
 10
-60.763553
 20
-98.999992
 30
0.000000
 11
-61.042027
 21
-98.999992
 31
0.000000
 0
LINE
 8
0
 6
CONTINUOUS
 62
7
 10
-60.698656
 20
-98.999992
 30
0.000000
 11
-60.763553
 21
-98.999992
 31
0.000000
 0
LINE
 8
0
 6
CONTINUOUS
 62
7
 10
-55.798656
 20
-98.999992
 30
0.000000
 11
-65.798656
 21
-98.999992
 31
0.000000
 0
LINE
 8
0
 6
CONTINUOUS
 62
7
 10
-64.898656
 20
-106.702299
 30
0.000000
 11
-62.191666
 21
-106.702299
 31
0.000000
 0
LINE
 8
0
 6
CONTINUOUS
 62
7
 10
-64.898656
 20
-106.702299
 30
0.000000
 11
-64.898656
 21
-100.199992
 31
0.000000
 0
LINE
 8
0
 6
CONTINUOUS
 62
7
 10
-66.098656
 20
-99.199992
 30
0.000000
 11
-55.498656
 21
-99.199992
 31
0.000000
 0
LINE
 8
0
 6
CONTINUOUS
 62
7
 10
-55.698656
 20
-98.999992
 30
0.000000
 11
-65.898656
 21
-98.999992
 31
0.000000
 0
LINE
 8
0
 6
CONTINUOUS
 62
7
 10
-66.098656
 20
-98.999992
 30
0.000000
 11
-55.498656
 21
-98.999992
 31
0.000000
 0
LINE
 8
0
 6
CONTINUOUS
 62
7
 10
-55.498656
 20
-100.199992
 30
0.000000
 11
-66.098656
 21
-100.199992
 31
0.000000
 0
LINE
 8
0
 6
CONTINUOUS
 62
7
 10
-55.498656
 20
-99.199992
 30
0.000000
 11
-55.498656
 21
-100.199992
 31
0.000000
 0
LINE
 8
0
 6
CONTINUOUS
 62
7
 10
-55.498656
 20
-98.999992
 30
0.000000
 11
-55.498656
 21
-99.199992
 31
0.000000
 0
LINE
 8
0
 6
CONTINUOUS
 62
7
 10
-66.098656
 20
-100.199992
 30
0.000000
 11
-66.098656
 21
-99.199992
 31
0.000000
 0
LINE
 8
0
 6
CONTINUOUS
 62
7
 10
-66.098656
 20
-99.199992
 30
0.000000
 11
-66.098656
 21
-98.999992
 31
0.000000
 0
LINE
 8
0
 6
CONTINUOUS
 62
7
 10
-60.798656
 20
-127.499990
 30
0.000000
 11
-56.798656
 21
-127.499990
 31
0.000000
 0
LINE
 8
0
 6
CONTINUOUS
 62
7
 10
-56.798656
 20
-127.499990
 30
0.000000
 11
-56.798656
 21
-126.999990
 31
0.000000
 0
LINE
 8
0
 6
CONTINUOUS
 62
7
 10
-56.798656
 20
-100.199992
 30
0.000000
 11
-56.798656
 21
-127.499990
 31
0.000000
 0
LINE
 8
0
 6
CONTINUOUS
 62
7
 10
-56.798656
 20
-126.999990
 30
0.000000
 11
-56.798656
 21
-100.199992
 31
0.000000
 0
LINE
 8
0
 6
CONTINUOUS
 62
7
 10
-60.798656
 20
-127.499990
 30
0.000000
 11
-60.798656
 21
-100.199992
 31
0.000000
 0
LINE
 8
0
 6
CONTINUOUS
 62
7
 10
-64.898656
 20
-139.502298
 30
0.000000
 11
-59.898656
 21
-139.502298
 31
0.000000
 0
LINE
 8
0
 6
CONTINUOUS
 62
7
 10
-64.898656
 20
-139.502298
 30
0.000000
 11
-64.898656
 21
-111.302299
 31
0.000000
 0
LINE
 8
0
 6
CONTINUOUS
 62
7
 10
-64.898656
 20
-111.302299
 30
0.000000
 11
-64.898656
 21
-106.702299
 31
0.000000
 0
LINE
 8
0
 6
CONTINUOUS
 62
7
 10
-59.898656
 20
-128.999990
 30
0.000000
 11
-59.898656
 21
-139.502298
 31
0.000000
 0
LINE
 8
0
 6
CONTINUOUS
 62
7
 10
-59.898656
 20
-139.502298
 30
0.000000
 11
-59.898656
 21
-128.999991
 31
0.000000
 0
LINE
 8
0
 6
CONTINUOUS
 62
7
 10
-61.409961
 20
-107.082410
 30
0.000000
 11
-61.368366
 21
-107.063014
 31
0.000000
 0
LINE
 8
0
 6
CONTINUOUS
 62
7
 10
-60.798656
 20
-108.397273
 30
0.000000
 11
-61.409961
 21
-107.082410
 31
0.000000
 0
LINE
 8
0
 6
CONTINUOUS
 62
7
 10
-61.368366
 20
-107.063014
 30
0.000000
 11
-61.300687
 21
-107.031455
 31
0.000000
 0
LINE
 8
0
 6
CONTINUOUS
 62
7
 10
-62.751694
 20
-105.501314
 30
0.000000
 11
-61.906458
 21
-107.313930
 31
0.000000
 0
LINE
 8
0
 6
CONTINUOUS
 62
7
 10
-60.837483
 20
-106.815459
 30
0.000000
 11
-61.004016
 21
-106.893115
 31
0.000000
 0
LINE
 8
0
 6
CONTINUOUS
 62
7
 10
-61.727266
 20
-107.230372
 30
0.000000
 11
-61.875727
 21
-107.299600
 31
0.000000
 0
LINE
 8
0
 6
CONTINUOUS
 62
7
 10
-61.906458
 20
-107.313930
 30
0.000000
 11
-61.815310
 21
-107.271427
 31
0.000000
 0
LINE
 8
0
 6
CONTINUOUS
 62
7
 10
-61.875727
 20
-107.299600
 30
0.000000
 11
-61.906458
 21
-107.313930
 31
0.000000
 0
LINE
 8
0
 6
CONTINUOUS
 62
7
 10
-61.481126
 20
-107.115595
 30
0.000000
 11
-61.727266
 21
-107.230372
 31
0.000000
 0
LINE
 8
0
 6
CONTINUOUS
 62
7
 10
-61.170550
 20
-106.970771
 30
0.000000
 11
-61.481126
 21
-107.115595
 31
0.000000
 0
LINE
 8
0
 6
CONTINUOUS
 62
7
 10
-61.004016
 20
-106.893115
 30
0.000000
 11
-61.170550
 21
-106.970771
 31
0.000000
 0
LINE
 8
0
 6
CONTINUOUS
 62
7
 10
-61.849252
 20
-105.080499
 30
0.000000
 11
-61.682719
 21
-105.002843
 31
0.000000
 0
LINE
 8
0
 6
CONTINUOUS
 62
7
 10
-61.682719
 20
-105.002843
 30
0.000000
 11
-61.372143
 21
-104.858020
 31
0.000000
 0
LINE
 8
0
 6
CONTINUOUS
 62
7
 10
-61.372143
 20
-104.858020
 30
0.000000
 11
-61.126003
 21
-104.743243
 31
0.000000
 0
LINE
 8
0
 6
CONTINUOUS
 62
7
 10
-61.126003
 20
-104.743243
 30
0.000000
 11
-60.977542
 21
-104.674015
 31
0.000000
 0
LINE
 8
0
 6
CONTINUOUS
 62
7
 10
-60.977542
 20
-104.674015
 30
0.000000
 11
-60.946811
 21
-104.659684
 31
0.000000
 0
LINE
 8
0
 6
CONTINUOUS
 62
7
 10
-62.015786
 20
-105.158155
 30
0.000000
 11
-61.849252
 21
-105.080499
 31
0.000000
 0
LINE
 8
0
 6
CONTINUOUS
 62
7
 10
-62.751694
 20
-105.501314
 30
0.000000
 11
-62.720963
 21
-105.486984
 31
0.000000
 0
LINE
 8
0
 6
CONTINUOUS
 62
7
 10
-62.720963
 20
-105.486984
 30
0.000000
 11
-62.572502
 21
-105.417756
 31
0.000000
 0
LINE
 8
0
 6
CONTINUOUS
 62
7
 10
-62.572502
 20
-105.417756
 30
0.000000
 11
-62.326362
 21
-105.302979
 31
0.000000
 0
LINE
 8
0
 6
CONTINUOUS
 62
7
 10
-62.326362
 20
-105.302979
 30
0.000000
 11
-62.015786
 21
-105.158155
 31
0.000000
 0
LINE
 8
0
 6
CONTINUOUS
 62
7
 10
-60.946811
 20
-104.659684
 30
0.000000
 11
-60.798656
 21
-104.977402
 31
0.000000
 0
LINE
 8
0
 6
CONTINUOUS
 62
7
 10
-60.798656
 20
-106.797354
 30
0.000000
 11
-60.837483
 21
-106.815459
 31
0.000000
 0
LINE
 8
0
 6
CONTINUOUS
 62
7
 10
-61.815310
 20
-107.271427
 30
0.000000
 11
-61.633197
 21
-107.186507
 31
0.000000
 0
LINE
 8
0
 6
CONTINUOUS
 62
7
 10
-61.633197
 20
-107.186507
 30
0.000000
 11
-61.614592
 21
-107.177831
 31
0.000000
 0
LINE
 8
0
 6
CONTINUOUS
 62
7
 10
-61.614592
 20
-107.177831
 30
0.000000
 11
-61.503771
 21
-107.126154
 31
0.000000
 0
LINE
 8
0
 6
CONTINUOUS
 62
7
 10
-61.503771
 20
-107.126154
 30
0.000000
 11
-61.331413
 21
-107.045782
 31
0.000000
 0
LINE
 8
0
 6
CONTINUOUS
 62
7
 10
-61.331413
 20
-107.045782
 30
0.000000
 11
-61.300687
 21
-107.031455
 31
0.000000
 0
LINE
 8
0
 6
CONTINUOUS
 62
7
 10
-61.525938
 20
-104.709060
 30
0.000000
 11
-61.650096
 21
-104.447344
 31
0.000000
 0
LINE
 8
0
 6
CONTINUOUS
 62
7
 10
-62.462294
 20
-104.826078
 30
0.000000
 11
-62.341615
 21
-105.089416
 31
0.000000
 0
LINE
 8
0
 6
CONTINUOUS
 62
7
 10
-61.967393
 20
-103.766897
 30
0.000000
 11
-61.990818
 21
-103.712121
 31
0.000000
 0
LINE
 8
0
 6
CONTINUOUS
 62
7
 10
-62.609453
 20
-104.510493
 30
0.000000
 11
-62.720205
 21
-104.272985
 31
0.000000
 0
LINE
 8
0
 6
CONTINUOUS
 62
7
 10
-62.462294
 20
-104.826078
 30
0.000000
 11
-62.609453
 21
-104.510493
 31
0.000000
 0
LINE
 8
0
 6
CONTINUOUS
 62
7
 10
-62.806495
 20
-104.092477
 30
0.000000
 11
-62.779591
 21
-104.145631
 31
0.000000
 0
LINE
 8
0
 6
CONTINUOUS
 62
7
 10
-62.720205
 20
-104.272985
 30
0.000000
 11
-62.779591
 21
-104.145631
 31
0.000000
 0
LINE
 8
0
 6
CONTINUOUS
 62
7
 10
-61.908007
 20
-103.894251
 30
0.000000
 11
-61.797256
 21
-104.131759
 31
0.000000
 0
LINE
 8
0
 6
CONTINUOUS
 62
7
 10
-61.797256
 20
-104.131759
 30
0.000000
 11
-61.650096
 21
-104.447344
 31
0.000000
 0
LINE
 8
0
 6
CONTINUOUS
 62
7
 10
-61.967393
 20
-103.766897
 30
0.000000
 11
-61.908007
 21
-103.894251
 31
0.000000
 0
LINE
 8
0
 6
CONTINUOUS
 62
7
 10
-62.032707
 20
-103.640419
 30
0.000000
 11
-61.990818
 21
-103.712121
 31
0.000000
 0
LINE
 8
0
 6
CONTINUOUS
 62
7
 10
-62.058431
 20
-103.607771
 30
0.000000
 11
-62.032707
 21
-103.640419
 31
0.000000
 0
LINE
 8
0
 6
CONTINUOUS
 62
7
 10
-62.152021
 20
-103.525907
 30
0.000000
 11
-62.058431
 21
-103.607771
 31
0.000000
 0
LINE
 8
0
 6
CONTINUOUS
 62
7
 10
-62.187802
 20
-103.504756
 30
0.000000
 11
-62.152021
 21
-103.525907
 31
0.000000
 0
LINE
 8
0
 6
CONTINUOUS
 62
7
 10
-62.345650
 20
-103.455432
 30
0.000000
 11
-62.304644
 21
-103.462229
 31
0.000000
 0
LINE
 8
0
 6
CONTINUOUS
 62
7
 10
-62.304644
 20
-103.462229
 30
0.000000
 11
-62.187802
 21
-103.504756
 31
0.000000
 0
LINE
 8
0
 6
CONTINUOUS
 62
7
 10
-62.806495
 20
-104.092477
 30
0.000000
 11
-62.842971
 21
-103.973607
 31
0.000000
 0
LINE
 8
0
 6
CONTINUOUS
 62
7
 10
-62.842971
 20
-103.973607
 30
0.000000
 11
-62.847655
 21
-103.932307
 31
0.000000
 0
LINE
 8
0
 6
CONTINUOUS
 62
7
 10
-62.847655
 20
-103.932307
 30
0.000000
 11
-62.838726
 21
-103.808287
 31
0.000000
 0
LINE
 8
0
 6
CONTINUOUS
 62
7
 10
-62.838726
 20
-103.808287
 30
0.000000
 11
-62.828175
 21
-103.768083
 31
0.000000
 0
LINE
 8
0
 6
CONTINUOUS
 62
7
 10
-62.828175
 20
-103.768083
 30
0.000000
 11
-62.775048
 21
-103.655664
 31
0.000000
 0
LINE
 8
0
 6
CONTINUOUS
 62
7
 10
-62.775048
 20
-103.655664
 30
0.000000
 11
-62.750686
 21
-103.621987
 31
0.000000
 0
LINE
 8
0
 6
CONTINUOUS
 62
7
 10
-62.750686
 20
-103.621987
 30
0.000000
 11
-62.660536
 21
-103.536350
 31
0.000000
 0
LINE
 8
0
 6
CONTINUOUS
 62
7
 10
-62.660536
 20
-103.536350
 30
0.000000
 11
-62.625654
 21
-103.513748
 31
0.000000
 0
LINE
 8
0
 6
CONTINUOUS
 62
7
 10
-62.625654
 20
-103.513748
 30
0.000000
 11
-62.510656
 21
-103.466460
 31
0.000000
 0
LINE
 8
0
 6
CONTINUOUS
 62
7
 10
-62.510656
 20
-103.466460
 30
0.000000
 11
-62.469964
 21
-103.457985
 31
0.000000
 0
LINE
 8
0
 6
CONTINUOUS
 62
7
 10
-62.469964
 20
-103.457985
 30
0.000000
 11
-62.345650
 21
-103.455432
 31
0.000000
 0
LINE
 8
0
 6
CONTINUOUS
 62
7
 10
-62.257091
 20
-105.270678
 30
0.000000
 11
-62.341615
 21
-105.089416
 31
0.000000
 0
LINE
 8
0
 6
CONTINUOUS
 62
7
 10
-61.525938
 20
-104.709060
 30
0.000000
 11
-61.448358
 21
-104.893560
 31
0.000000
 0
LINE
 8
0
 6
CONTINUOUS
 62
7
 10
-63.698656
 20
-103.902299
 30
0.000000
 11
-63.048656
 21
-105.028132
 31
0.000000
 0
LINE
 8
0
 6
CONTINUOUS
 62
7
 10
-61.748656
 20
-102.776466
 30
0.000000
 11
-63.048656
 21
-102.776466
 31
0.000000
 0
LINE
 8
0
 6
CONTINUOUS
 62
7
 10
-61.098656
 20
-103.902299
 30
0.000000
 11
-61.748656
 21
-102.776466
 31
0.000000
 0
LINE
 8
0
 6
CONTINUOUS
 62
7
 10
-63.048656
 20
-102.776466
 30
0.000000
 11
-63.698656
 21
-103.902299
 31
0.000000
 0
LINE
 8
0
 6
CONTINUOUS
 62
7
 10
-63.048656
 20
-105.028132
 30
0.000000
 11
-62.369699
 21
-105.028132
 31
0.000000
 0
LINE
 8
0
 6
CONTINUOUS
 62
7
 10
-61.543304
 20
-104.672452
 30
0.000000
 11
-61.098656
 21
-103.902299
 31
0.000000
 0
LINE
 8
0
 6
CONTINUOUS
 62
7
 10
-59.325089
 20
-129.999990
 30
0.000000
 11
-58.982406
 21
-129.999990
 31
0.000000
 0
LINE
 8
0
 6
CONTINUOUS
 62
7
 10
-59.596674
 20
-129.999990
 30
0.000000
 11
-59.325089
 21
-129.999990
 31
0.000000
 0
LINE
 8
0
 6
CONTINUOUS
 62
7
 10
-58.982406
 20
-129.999990
 30
0.000000
 11
-58.798656
 21
-129.999990
 31
0.000000
 0
LINE
 8
0
 6
CONTINUOUS
 62
7
 10
-58.798656
 20
-129.999990
 30
0.000000
 11
-58.614907
 21
-129.999990
 31
0.000000
 0
LINE
 8
0
 6
CONTINUOUS
 62
7
 10
-58.614907
 20
-129.999990
 30
0.000000
 11
-58.272224
 21
-129.999990
 31
0.000000
 0
LINE
 8
0
 6
CONTINUOUS
 62
7
 10
-58.272224
 20
-129.999990
 30
0.000000
 11
-58.000639
 21
-129.999990
 31
0.000000
 0
LINE
 8
0
 6
CONTINUOUS
 62
7
 10
-58.000639
 20
-129.999990
 30
0.000000
 11
-57.836831
 21
-129.999990
 31
0.000000
 0
LINE
 8
0
 6
CONTINUOUS
 62
7
 10
-57.836831
 20
-129.999990
 30
0.000000
 11
-57.802922
 21
-129.999990
 31
0.000000
 0
LINE
 8
0
 6
CONTINUOUS
 62
7
 10
-59.794391
 20
-129.999990
 30
0.000000
 11
-59.760482
 21
-129.999990
 31
0.000000
 0
LINE
 8
0
 6
CONTINUOUS
 62
7
 10
-59.760482
 20
-129.999990
 30
0.000000
 11
-59.596674
 21
-129.999990
 31
0.000000
 0
LINE
 8
0
 6
CONTINUOUS
 62
7
 10
-57.802922
 20
-129.999990
 30
0.000000
 11
-57.802922
 21
-128.999990
 31
0.000000
 0
LINE
 8
0
 6
CONTINUOUS
 62
7
 10
-59.794391
 20
-129.999990
 30
0.000000
 11
-59.794391
 21
-128.999990
 31
0.000000
 0
LINE
 8
0
 6
CONTINUOUS
 62
7
 10
-64.390125
 20
-139.502298
 30
0.000000
 11
-64.390125
 21
-141.502298
 31
0.000000
 0
LINE
 8
0
 6
CONTINUOUS
 62
7
 10
-60.407188
 20
-139.502298
 30
0.000000
 11
-60.407188
 21
-141.502298
 31
0.000000
 0
LINE
 8
0
 6
CONTINUOUS
 62
7
 10
-61.345792
 20
-141.502298
 30
0.000000
 11
-62.031157
 21
-141.502298
 31
0.000000
 0
LINE
 8
0
 6
CONTINUOUS
 62
7
 10
-60.608330
 20
-141.502298
 30
0.000000
 11
-60.407188
 21
-141.502298
 31
0.000000
 0
LINE
 8
0
 6
CONTINUOUS
 62
7
 10
-60.407188
 20
-141.502298
 30
0.000000
 11
-60.475005
 21
-141.502298
 31
0.000000
 0
LINE
 8
0
 6
CONTINUOUS
 62
7
 10
-64.322308
 20
-141.502298
 30
0.000000
 11
-64.390125
 21
-141.502298
 31
0.000000
 0
LINE
 8
0
 6
CONTINUOUS
 62
7
 10
-64.390125
 20
-141.502298
 30
0.000000
 11
-64.188983
 21
-141.502298
 31
0.000000
 0
LINE
 8
0
 6
CONTINUOUS
 62
7
 10
-63.994691
 20
-141.502298
 30
0.000000
 11
-64.322308
 21
-141.502298
 31
0.000000
 0
LINE
 8
0
 6
CONTINUOUS
 62
7
 10
-62.031157
 20
-141.502298
 30
0.000000
 11
-62.398656
 21
-141.502298
 31
0.000000
 0
LINE
 8
0
 6
CONTINUOUS
 62
7
 10
-62.398656
 20
-141.502298
 30
0.000000
 11
-62.766155
 21
-141.502298
 31
0.000000
 0
LINE
 8
0
 6
CONTINUOUS
 62
7
 10
-62.766155
 20
-141.502298
 30
0.000000
 11
-63.451521
 21
-141.502298
 31
0.000000
 0
LINE
 8
0
 6
CONTINUOUS
 62
7
 10
-63.451521
 20
-141.502298
 30
0.000000
 11
-63.994691
 21
-141.502298
 31
0.000000
 0
LINE
 8
0
 6
CONTINUOUS
 62
7
 10
-60.475005
 20
-141.502298
 30
0.000000
 11
-60.802622
 21
-141.502298
 31
0.000000
 0
LINE
 8
0
 6
CONTINUOUS
 62
7
 10
-60.802622
 20
-141.502298
 30
0.000000
 11
-61.345792
 21
-141.502298
 31
0.000000
 0
LINE
 8
0
 6
CONTINUOUS
 62
7
 10
-61.609008
 20
-141.502298
 30
0.000000
 11
-62.123032
 21
-141.502298
 31
0.000000
 0
LINE
 8
0
 6
CONTINUOUS
 62
7
 10
-61.201631
 20
-141.502298
 30
0.000000
 11
-61.609008
 21
-141.502298
 31
0.000000
 0
LINE
 8
0
 6
CONTINUOUS
 62
7
 10
-62.123032
 20
-141.502298
 30
0.000000
 11
-62.398656
 21
-141.502298
 31
0.000000
 0
LINE
 8
0
 6
CONTINUOUS
 62
7
 10
-62.398656
 20
-141.502298
 30
0.000000
 11
-62.674281
 21
-141.502298
 31
0.000000
 0
LINE
 8
0
 6
CONTINUOUS
 62
7
 10
-62.674281
 20
-141.502298
 30
0.000000
 11
-63.188305
 21
-141.502298
 31
0.000000
 0
LINE
 8
0
 6
CONTINUOUS
 62
7
 10
-63.188305
 20
-141.502298
 30
0.000000
 11
-63.595682
 21
-141.502298
 31
0.000000
 0
LINE
 8
0
 6
CONTINUOUS
 62
7
 10
-63.595682
 20
-141.502298
 30
0.000000
 11
-63.841395
 21
-141.502298
 31
0.000000
 0
LINE
 8
0
 6
CONTINUOUS
 62
7
 10
-63.841395
 20
-141.502298
 30
0.000000
 11
-63.892258
 21
-141.502298
 31
0.000000
 0
LINE
 8
0
 6
CONTINUOUS
 62
7
 10
-60.905055
 20
-141.502298
 30
0.000000
 11
-60.955918
 21
-141.502298
 31
0.000000
 0
LINE
 8
0
 6
CONTINUOUS
 62
7
 10
-60.955918
 20
-141.502298
 30
0.000000
 11
-61.201631
 21
-141.502298
 31
0.000000
 0
LINE
 8
0
 6
CONTINUOUS
 62
7
 10
-60.905055
 20
-141.502298
 30
0.000000
 11
-60.608330
 21
-141.502298
 31
0.000000
 0
LINE
 8
0
 6
CONTINUOUS
 62
7
 10
-64.188983
 20
-141.502298
 30
0.000000
 11
-63.892258
 21
-141.502298
 31
0.000000
 0
LINE
 8
0
 6
CONTINUOUS
 62
7
 10
-63.892258
 20
-141.502298
 30
0.000000
 11
-63.892258
 21
-144.002297
 31
0.000000
 0
LINE
 8
0
 6
CONTINUOUS
 62
7
 10
-60.905055
 20
-141.502298
 30
0.000000
 11
-60.905055
 21
-144.002297
 31
0.000000
 0
ENDSEC
 0
EOF
