 0
SECTION
 2
HEADER
 0
ENDSEC
 0
SECTION
 2
TABLES
 0
TABLE
 2
LTYPE
 70
1
 0
ENDTAB
 0
TABLE
 2
LAYER
 70
1
 0
LAYER
 2
0
 70
0
 62
7
 6
CONTINUOUS
 0
ENDTAB
 0
TABLE
 2
STYLE
 70
1
 0
STYLE
 2
STANDARD
 70
0
 40
0.500000
 41
1.000000
 50
30.000000
 71
0
 42
0.500000
 3
txt
 4

 0
ENDTAB
 0
ENDSEC
 0
SECTION
 2
ENTITIES
 0
LINE
 8
0
 6
CONTINUOUS
 62
7
 10
-47.872824
 20
-126.999990
 30
0.000000
 11
-47.872824
 21
-125.499990
 31
0.000000
 0
LINE
 8
0
 6
CONTINUOUS
 62
7
 10
-48.998657
 20
-126.999990
 30
0.000000
 11
-48.998657
 21
-125.499990
 31
0.000000
 0
LINE
 8
0
 6
CONTINUOUS
 62
7
 10
-50.124490
 20
-126.999990
 30
0.000000
 11
-50.124490
 21
-125.499990
 31
0.000000
 0
LINE
 8
0
 6
CONTINUOUS
 62
7
 10
-47.872824
 20
-126.999990
 30
0.000000
 11
-48.998657
 21
-126.999990
 31
0.000000
 0
LINE
 8
0
 6
CONTINUOUS
 62
7
 10
-48.998657
 20
-126.999990
 30
0.000000
 11
-50.124490
 21
-126.999990
 31
0.000000
 0
LINE
 8
0
 6
CONTINUOUS
 62
7
 10
-50.124490
 20
-125.499990
 30
0.000000
 11
-48.998657
 21
-125.499990
 31
0.000000
 0
LINE
 8
0
 6
CONTINUOUS
 62
7
 10
-48.998657
 20
-125.499990
 30
0.000000
 11
-47.872824
 21
-125.499990
 31
0.000000
 0
LINE
 8
0
 6
CONTINUOUS
 62
7
 10
-50.124490
 20
-127.499990
 30
0.000000
 11
-50.124490
 21
-128.999990
 31
0.000000
 0
LINE
 8
0
 6
CONTINUOUS
 62
7
 10
-48.998657
 20
-127.499990
 30
0.000000
 11
-48.998657
 21
-128.999990
 31
0.000000
 0
LINE
 8
0
 6
CONTINUOUS
 62
7
 10
-47.872824
 20
-127.499990
 30
0.000000
 11
-47.872824
 21
-128.999990
 31
0.000000
 0
LINE
 8
0
 6
CONTINUOUS
 62
7
 10
-48.998657
 20
-128.999990
 30
0.000000
 11
-50.124490
 21
-128.999990
 31
0.000000
 0
LINE
 8
0
 6
CONTINUOUS
 62
7
 10
-47.872824
 20
-128.999990
 30
0.000000
 11
-48.998657
 21
-128.999990
 31
0.000000
 0
LINE
 8
0
 6
CONTINUOUS
 62
7
 10
-25.848657
 20
-149.999989
 30
0.000000
 11
-27.248657
 21
-149.999989
 31
0.000000
 0
LINE
 8
0
 6
CONTINUOUS
 62
7
 10
-27.248657
 20
-146.999989
 30
0.000000
 11
-25.848657
 21
-146.999989
 31
0.000000
 0
LINE
 8
0
 6
CONTINUOUS
 62
7
 10
-27.282859
 20
-146.993959
 30
0.000000
 11
-27.317503
 21
-147.089142
 31
0.000000
 0
LINE
 8
0
 6
CONTINUOUS
 62
7
 10
-27.347138
 20
-146.917354
 30
0.000000
 11
-27.348657
 21
-146.899989
 31
0.000000
 0
LINE
 8
0
 6
CONTINUOUS
 62
7
 10
-27.347138
 20
-146.917354
 30
0.000000
 11
-27.374197
 21
-146.899989
 31
0.000000
 0
LINE
 8
0
 6
CONTINUOUS
 62
7
 10
-27.446890
 20
-146.934943
 30
0.000000
 11
-27.374197
 21
-146.899989
 31
0.000000
 0
LINE
 8
0
 6
CONTINUOUS
 62
7
 10
-30.276409
 20
-147.433864
 30
0.000000
 11
-30.348657
 21
-146.899989
 31
0.000000
 0
LINE
 8
0
 6
CONTINUOUS
 62
7
 10
-27.282859
 20
-146.993959
 30
0.000000
 11
-27.248657
 21
-146.999989
 31
0.000000
 0
LINE
 8
0
 6
CONTINUOUS
 62
7
 10
-27.312936
 20
-146.976594
 30
0.000000
 11
-27.282859
 21
-146.993959
 31
0.000000
 0
LINE
 8
0
 6
CONTINUOUS
 62
7
 10
-27.347138
 20
-146.917354
 30
0.000000
 11
-27.446890
 21
-146.934943
 31
0.000000
 0
LINE
 8
0
 6
CONTINUOUS
 62
7
 10
-27.312936
 20
-146.976594
 30
0.000000
 11
-27.335259
 21
-146.949989
 31
0.000000
 0
LINE
 8
0
 6
CONTINUOUS
 62
7
 10
-27.347138
 20
-146.917354
 30
0.000000
 11
-27.335259
 21
-146.949989
 31
0.000000
 0
LINE
 8
0
 6
CONTINUOUS
 62
7
 10
-29.911217
 20
-148.437219
 30
0.000000
 11
-30.276409
 21
-147.433864
 31
0.000000
 0
LINE
 8
0
 6
CONTINUOUS
 62
7
 10
-27.248657
 20
-149.999989
 30
0.000000
 11
-28.300184
 21
-149.789036
 31
0.000000
 0
LINE
 8
0
 6
CONTINUOUS
 62
7
 10
-28.300184
 20
-149.789036
 30
0.000000
 11
-29.224881
 21
-149.255162
 31
0.000000
 0
LINE
 8
0
 6
CONTINUOUS
 62
7
 10
-27.446890
 20
-146.934943
 30
0.000000
 11
-27.732677
 21
-146.985335
 31
0.000000
 0
LINE
 8
0
 6
CONTINUOUS
 62
7
 10
-29.224881
 20
-149.255162
 30
0.000000
 11
-29.911217
 21
-148.437219
 31
0.000000
 0
LINE
 8
0
 6
CONTINUOUS
 62
7
 10
-30.348657
 20
-146.085069
 30
0.000000
 11
-30.348657
 21
-146.899989
 31
0.000000
 0
LINE
 8
0
 6
CONTINUOUS
 62
7
 10
-27.348657
 20
-146.085069
 30
0.000000
 11
-27.348657
 21
-146.899989
 31
0.000000
 0
LINE
 8
0
 6
CONTINUOUS
 62
7
 10
-25.848657
 20
-146.999989
 30
0.000000
 11
-25.848657
 21
-147.025530
 31
0.000000
 0
LINE
 8
0
 6
CONTINUOUS
 62
7
 10
-25.848657
 20
-147.025530
 30
0.000000
 11
-25.848657
 21
-147.224664
 31
0.000000
 0
LINE
 8
0
 6
CONTINUOUS
 62
7
 10
-25.848657
 20
-149.608503
 30
0.000000
 11
-25.848657
 21
-149.898698
 31
0.000000
 0
LINE
 8
0
 6
CONTINUOUS
 62
7
 10
-25.848657
 20
-147.224664
 30
0.000000
 11
-25.848657
 21
-147.596037
 31
0.000000
 0
LINE
 8
0
 6
CONTINUOUS
 62
7
 10
-25.848657
 20
-147.596037
 30
0.000000
 11
-25.848657
 21
-148.089495
 31
0.000000
 0
LINE
 8
0
 6
CONTINUOUS
 62
7
 10
-25.848657
 20
-148.089495
 30
0.000000
 11
-25.848657
 21
-148.638392
 31
0.000000
 0
LINE
 8
0
 6
CONTINUOUS
 62
7
 10
-25.848657
 20
-148.638392
 30
0.000000
 11
-25.848657
 21
-149.168597
 31
0.000000
 0
LINE
 8
0
 6
CONTINUOUS
 62
7
 10
-25.848657
 20
-149.168597
 30
0.000000
 11
-25.848657
 21
-149.608503
 31
0.000000
 0
LINE
 8
0
 6
CONTINUOUS
 62
7
 10
-25.848657
 20
-149.898698
 30
0.000000
 11
-25.848657
 21
-149.999989
 31
0.000000
 0
LINE
 8
0
 6
CONTINUOUS
 62
7
 10
-31.148657
 20
-146.085069
 30
0.000000
 11
-31.148657
 21
-144.002297
 31
0.000000
 0
LINE
 8
0
 6
CONTINUOUS
 62
7
 10
-31.148657
 20
-146.085069
 30
0.000000
 11
-31.109495
 21
-146.085069
 31
0.000000
 0
LINE
 8
0
 6
CONTINUOUS
 62
7
 10
-31.109495
 20
-146.085069
 30
0.000000
 11
-30.804156
 21
-146.085069
 31
0.000000
 0
LINE
 8
0
 6
CONTINUOUS
 62
7
 10
-30.804156
 20
-146.085069
 30
0.000000
 11
-30.234717
 21
-146.085069
 31
0.000000
 0
LINE
 8
0
 6
CONTINUOUS
 62
7
 10
-30.234717
 20
-146.085069
 30
0.000000
 11
-29.478082
 21
-146.085069
 31
0.000000
 0
LINE
 8
0
 6
CONTINUOUS
 62
7
 10
-29.478082
 20
-146.085069
 30
0.000000
 11
-28.636440
 21
-146.085069
 31
0.000000
 0
LINE
 8
0
 6
CONTINUOUS
 62
7
 10
-28.636440
 20
-146.085069
 30
0.000000
 11
-27.823459
 21
-146.085069
 31
0.000000
 0
LINE
 8
0
 6
CONTINUOUS
 62
7
 10
-27.823459
 20
-146.085069
 30
0.000000
 11
-27.148936
 21
-146.085069
 31
0.000000
 0
LINE
 8
0
 6
CONTINUOUS
 62
7
 10
-27.148936
 20
-146.085069
 30
0.000000
 11
-26.703971
 21
-146.085069
 31
0.000000
 0
LINE
 8
0
 6
CONTINUOUS
 62
7
 10
-26.548657
 20
-146.085069
 30
0.000000
 11
-26.548657
 21
-144.002297
 31
0.000000
 0
LINE
 8
0
 6
CONTINUOUS
 62
7
 10
-26.703971
 20
-146.085069
 30
0.000000
 11
-26.548657
 21
-146.085069
 31
0.000000
 0
LINE
 8
0
 6
CONTINUOUS
 62
7
 10
-30.234717
 20
-144.002297
 30
0.000000
 11
-29.478082
 21
-144.002297
 31
0.000000
 0
LINE
 8
0
 6
CONTINUOUS
 62
7
 10
-28.636440
 20
-144.002297
 30
0.000000
 11
-27.823459
 21
-144.002297
 31
0.000000
 0
LINE
 8
0
 6
CONTINUOUS
 62
7
 10
-29.478082
 20
-144.002297
 30
0.000000
 11
-28.636440
 21
-144.002297
 31
0.000000
 0
LINE
 8
0
 6
CONTINUOUS
 62
7
 10
-30.804156
 20
-144.002297
 30
0.000000
 11
-30.234717
 21
-144.002297
 31
0.000000
 0
LINE
 8
0
 6
CONTINUOUS
 62
7
 10
-27.823459
 20
-144.002297
 30
0.000000
 11
-27.148936
 21
-144.002297
 31
0.000000
 0
LINE
 8
0
 6
CONTINUOUS
 62
7
 10
-27.148936
 20
-144.002297
 30
0.000000
 11
-26.703971
 21
-144.002297
 31
0.000000
 0
LINE
 8
0
 6
CONTINUOUS
 62
7
 10
-31.109495
 20
-144.002297
 30
0.000000
 11
-30.804156
 21
-144.002297
 31
0.000000
 0
LINE
 8
0
 6
CONTINUOUS
 62
7
 10
-26.703971
 20
-144.002297
 30
0.000000
 11
-26.548657
 21
-144.002297
 31
0.000000
 0
LINE
 8
0
 6
CONTINUOUS
 62
7
 10
-31.148657
 20
-144.002297
 30
0.000000
 11
-31.109495
 21
-144.002297
 31
0.000000
 0
LINE
 8
0
 6
CONTINUOUS
 62
7
 10
-28.144026
 20
-98.999992
 30
0.000000
 11
-28.369711
 21
-98.999992
 31
0.000000
 0
LINE
 8
0
 6
CONTINUOUS
 62
7
 10
-27.723136
 20
-98.999992
 30
0.000000
 11
-28.144026
 21
-98.999992
 31
0.000000
 0
LINE
 8
0
 6
CONTINUOUS
 62
7
 10
-27.163884
 20
-98.999992
 30
0.000000
 11
-27.723136
 21
-98.999992
 31
0.000000
 0
LINE
 8
0
 6
CONTINUOUS
 62
7
 10
-23.398657
 20
-98.999992
 30
0.000000
 11
-26.698657
 21
-98.999992
 31
0.000000
 0
LINE
 8
0
 6
CONTINUOUS
 62
7
 10
-26.698657
 20
-98.999992
 30
0.000000
 11
-27.163884
 21
-98.999992
 31
0.000000
 0
LINE
 8
0
 6
CONTINUOUS
 62
7
 10
-21.727602
 20
-98.999992
 30
0.000000
 11
-21.953288
 21
-98.999992
 31
0.000000
 0
LINE
 8
0
 6
CONTINUOUS
 62
7
 10
-21.953288
 20
-98.999992
 30
0.000000
 11
-22.374178
 21
-98.999992
 31
0.000000
 0
LINE
 8
0
 6
CONTINUOUS
 62
7
 10
-22.374178
 20
-98.999992
 30
0.000000
 11
-22.933430
 21
-98.999992
 31
0.000000
 0
LINE
 8
0
 6
CONTINUOUS
 62
7
 10
-22.933430
 20
-98.999992
 30
0.000000
 11
-23.398657
 21
-98.999992
 31
0.000000
 0
LINE
 8
0
 6
CONTINUOUS
 62
7
 10
-13.248657
 20
-98.999992
 30
0.000000
 11
-52.648657
 21
-98.999992
 31
0.000000
 0
LINE
 8
0
 6
CONTINUOUS
 62
7
 10
-43.498657
 20
-106.702299
 30
0.000000
 11
-41.998657
 21
-106.702299
 31
0.000000
 0
LINE
 8
0
 6
CONTINUOUS
 62
7
 10
-41.998657
 20
-106.502299
 30
0.000000
 11
-43.298657
 21
-106.502299
 31
0.000000
 0
LINE
 8
0
 6
CONTINUOUS
 62
7
 10
-43.298657
 20
-106.502299
 30
0.000000
 11
-43.298657
 21
-105.202299
 31
0.000000
 0
LINE
 8
0
 6
CONTINUOUS
 62
7
 10
-43.298657
 20
-105.202299
 30
0.000000
 11
-43.298657
 21
-100.199992
 31
0.000000
 0
LINE
 8
0
 6
CONTINUOUS
 62
7
 10
-43.498657
 20
-100.199992
 30
0.000000
 11
-43.498657
 21
-106.702299
 31
0.000000
 0
LINE
 8
0
 6
CONTINUOUS
 62
7
 10
-41.998657
 20
-106.702299
 30
0.000000
 11
-41.998657
 21
-106.502299
 31
0.000000
 0
LINE
 8
0
 6
CONTINUOUS
 62
7
 10
-13.198657
 20
-98.999992
 30
0.000000
 11
-52.698657
 21
-98.999992
 31
0.000000
 0
LINE
 8
0
 6
CONTINUOUS
 62
7
 10
-52.898657
 20
-99.199992
 30
0.000000
 11
-52.898657
 21
-100.199992
 31
0.000000
 0
LINE
 8
0
 6
CONTINUOUS
 62
7
 10
-52.898657
 20
-100.199992
 30
0.000000
 11
-12.998657
 21
-100.199992
 31
0.000000
 0
LINE
 8
0
 6
CONTINUOUS
 62
7
 10
-12.998657
 20
-100.199992
 30
0.000000
 11
-12.998657
 21
-99.199992
 31
0.000000
 0
LINE
 8
0
 6
CONTINUOUS
 62
7
 10
-10.398657
 20
-98.999992
 30
0.000000
 11
-55.498657
 21
-98.999992
 31
0.000000
 0
LINE
 8
0
 6
CONTINUOUS
 62
7
 10
-55.498657
 20
-99.199992
 30
0.000000
 11
-52.898657
 21
-99.199992
 31
0.000000
 0
LINE
 8
0
 6
CONTINUOUS
 62
7
 10
-55.498657
 20
-98.999992
 30
0.000000
 11
-55.498657
 21
-99.199992
 31
0.000000
 0
LINE
 8
0
 6
CONTINUOUS
 62
7
 10
-10.398657
 20
-99.199992
 30
0.000000
 11
-10.398657
 21
-98.999992
 31
0.000000
 0
LINE
 8
0
 6
CONTINUOUS
 62
7
 10
-12.998657
 20
-99.199992
 30
0.000000
 11
-10.398657
 21
-99.199992
 31
0.000000
 0
LINE
 8
0
 6
CONTINUOUS
 62
7
 10
-18.898657
 20
-106.502299
 30
0.000000
 11
-20.198657
 21
-106.502299
 31
0.000000
 0
LINE
 8
0
 6
CONTINUOUS
 62
7
 10
-20.198657
 20
-106.502299
 30
0.000000
 11
-20.198657
 21
-106.702299
 31
0.000000
 0
LINE
 8
0
 6
CONTINUOUS
 62
7
 10
-20.198657
 20
-106.702299
 30
0.000000
 11
-18.698657
 21
-106.702299
 31
0.000000
 0
LINE
 8
0
 6
CONTINUOUS
 62
7
 10
-18.698657
 20
-106.702299
 30
0.000000
 11
-18.698657
 21
-100.199992
 31
0.000000
 0
LINE
 8
0
 6
CONTINUOUS
 62
7
 10
-18.898657
 20
-100.199992
 30
0.000000
 11
-18.898657
 21
-105.202300
 31
0.000000
 0
LINE
 8
0
 6
CONTINUOUS
 62
7
 10
-18.898657
 20
-105.202300
 30
0.000000
 11
-18.898657
 21
-106.502299
 31
0.000000
 0
LINE
 8
0
 6
CONTINUOUS
 62
7
 10
-47.498657
 20
-127.499990
 30
0.000000
 11
-47.498657
 21
-126.999990
 31
0.000000
 0
LINE
 8
0
 6
CONTINUOUS
 62
7
 10
-47.498657
 20
-126.999990
 30
0.000000
 11
-50.498657
 21
-126.999990
 31
0.000000
 0
LINE
 8
0
 6
CONTINUOUS
 62
7
 10
-50.998657
 20
-127.499990
 30
0.000000
 11
-47.498657
 21
-127.499990
 31
0.000000
 0
LINE
 8
0
 6
CONTINUOUS
 62
7
 10
-50.998657
 20
-100.199992
 30
0.000000
 11
-50.998657
 21
-127.499990
 31
0.000000
 0
LINE
 8
0
 6
CONTINUOUS
 62
7
 10
-50.498657
 20
-126.999990
 30
0.000000
 11
-50.498657
 21
-100.199992
 31
0.000000
 0
LINE
 8
0
 6
CONTINUOUS
 62
7
 10
-43.298657
 20
-102.776466
 30
0.000000
 11
-41.298657
 21
-102.776466
 31
0.000000
 0
LINE
 8
0
 6
CONTINUOUS
 62
7
 10
-43.298657
 20
-105.028132
 30
0.000000
 11
-41.298657
 21
-105.028132
 31
0.000000
 0
LINE
 8
0
 6
CONTINUOUS
 62
7
 10
-41.298657
 20
-102.776466
 30
0.000000
 11
-41.298657
 21
-103.902299
 31
0.000000
 0
LINE
 8
0
 6
CONTINUOUS
 62
7
 10
-41.298657
 20
-103.902299
 30
0.000000
 11
-41.298657
 21
-105.028132
 31
0.000000
 0
LINE
 8
0
 6
CONTINUOUS
 62
7
 10
-43.298657
 20
-105.028132
 30
0.000000
 11
-43.298657
 21
-103.902299
 31
0.000000
 0
LINE
 8
0
 6
CONTINUOUS
 62
7
 10
-43.298657
 20
-103.902299
 30
0.000000
 11
-43.298657
 21
-102.776466
 31
0.000000
 0
LINE
 8
0
 6
CONTINUOUS
 62
7
 10
-41.298657
 20
-103.902299
 30
0.000000
 11
-43.298657
 21
-103.902299
 31
0.000000
 0
LINE
 8
0
 6
CONTINUOUS
 62
7
 10
-18.898657
 20
-106.502299
 30
0.000000
 11
-18.898657
 21
-105.202299
 31
0.000000
 0
LINE
 8
0
 6
CONTINUOUS
 62
7
 10
-43.298657
 20
-105.202299
 30
0.000000
 11
-43.298657
 21
-106.502299
 31
0.000000
 0
LINE
 8
0
 6
CONTINUOUS
 62
7
 10
-18.898657
 20
-111.302299
 30
0.000000
 11
-20.398657
 21
-106.502299
 31
0.000000
 0
LINE
 8
0
 6
CONTINUOUS
 62
7
 10
-41.798657
 20
-106.502299
 30
0.000000
 11
-43.298657
 21
-111.302299
 31
0.000000
 0
LINE
 8
0
 6
CONTINUOUS
 62
7
 10
-18.898657
 20
-123.922782
 30
0.000000
 11
-18.898657
 21
-111.302299
 31
0.000000
 0
LINE
 8
0
 6
CONTINUOUS
 62
7
 10
-43.298657
 20
-139.502298
 30
0.000000
 11
-14.398657
 21
-139.502298
 31
0.000000
 0
LINE
 8
0
 6
CONTINUOUS
 62
7
 10
-14.398657
 20
-126.734694
 30
0.000000
 11
-18.898657
 21
-123.922782
 31
0.000000
 0
LINE
 8
0
 6
CONTINUOUS
 62
7
 10
-14.398657
 20
-139.502298
 30
0.000000
 11
-14.398657
 21
-126.734694
 31
0.000000
 0
LINE
 8
0
 6
CONTINUOUS
 62
7
 10
-20.398657
 20
-106.502299
 30
0.000000
 11
-20.198657
 21
-106.502299
 31
0.000000
 0
LINE
 8
0
 6
CONTINUOUS
 62
7
 10
-20.198657
 20
-106.502299
 30
0.000000
 11
-18.898657
 21
-106.502299
 31
0.000000
 0
LINE
 8
0
 6
CONTINUOUS
 62
7
 10
-18.898657
 20
-105.202299
 30
0.000000
 11
-43.298657
 21
-105.202299
 31
0.000000
 0
LINE
 8
0
 6
CONTINUOUS
 62
7
 10
-43.298657
 20
-106.502299
 30
0.000000
 11
-41.998657
 21
-106.502299
 31
0.000000
 0
LINE
 8
0
 6
CONTINUOUS
 62
7
 10
-41.998657
 20
-106.502299
 30
0.000000
 11
-41.798657
 21
-106.502299
 31
0.000000
 0
LINE
 8
0
 6
CONTINUOUS
 62
7
 10
-43.298657
 20
-111.302299
 30
0.000000
 11
-43.298657
 21
-112.426125
 31
0.000000
 0
LINE
 8
0
 6
CONTINUOUS
 62
7
 10
-43.298657
 20
-113.334360
 30
0.000000
 11
-43.298657
 21
-114.012352
 31
0.000000
 0
LINE
 8
0
 6
CONTINUOUS
 62
7
 10
-43.298657
 20
-114.908414
 30
0.000000
 11
-43.298657
 21
-139.502298
 31
0.000000
 0
LINE
 8
0
 6
CONTINUOUS
 62
7
 10
-48.448654
 20
-108.562006
 30
0.000000
 11
-48.448654
 21
-106.892352
 31
0.000000
 0
LINE
 8
0
 6
CONTINUOUS
 62
7
 10
-47.550414
 20
-108.524966
 30
0.000000
 11
-47.555991
 21
-106.858920
 31
0.000000
 0
LINE
 8
0
 6
CONTINUOUS
 62
7
 10
-47.615112
 20
-106.793649
 30
0.000000
 11
-47.578396
 21
-106.825127
 31
0.000000
 0
LINE
 8
0
 6
CONTINUOUS
 62
7
 10
-48.417614
 20
-106.823704
 30
0.000000
 11
-48.329992
 21
-106.764430
 31
0.000000
 0
LINE
 8
0
 6
CONTINUOUS
 62
7
 10
-47.726033
 20
-106.741811
 30
0.000000
 11
-47.615112
 21
-106.793649
 31
0.000000
 0
LINE
 8
0
 6
CONTINUOUS
 62
7
 10
-48.329992
 20
-106.764430
 30
0.000000
 11
-48.197621
 21
-106.722536
 31
0.000000
 0
LINE
 8
0
 6
CONTINUOUS
 62
7
 10
-47.873773
 20
-106.710407
 30
0.000000
 11
-47.726033
 21
-106.741811
 31
0.000000
 0
LINE
 8
0
 6
CONTINUOUS
 62
7
 10
-48.038379
 20
-106.703679
 30
0.000000
 11
-47.873773
 21
-106.710407
 31
0.000000
 0
LINE
 8
0
 6
CONTINUOUS
 62
7
 10
-48.197621
 20
-106.722536
 30
0.000000
 11
-48.038379
 21
-106.703679
 31
0.000000
 0
LINE
 8
0
 6
CONTINUOUS
 62
7
 10
-48.448654
 20
-106.892352
 30
0.000000
 11
-48.417614
 21
-106.823704
 31
0.000000
 0
LINE
 8
0
 6
CONTINUOUS
 62
7
 10
-47.578396
 20
-106.825127
 30
0.000000
 11
-47.555991
 21
-106.858920
 31
0.000000
 0
LINE
 8
0
 6
CONTINUOUS
 62
7
 10
-47.527607
 20
-108.925041
 30
0.000000
 11
-47.550414
 21
-108.524966
 31
0.000000
 0
LINE
 8
0
 6
CONTINUOUS
 62
7
 10
-48.422256
 20
-109.025072
 30
0.000000
 11
-48.448654
 21
-108.562006
 31
0.000000
 0
LINE
 8
0
 6
CONTINUOUS
 62
7
 10
-47.461217
 20
-109.310479
 30
0.000000
 11
-47.527607
 21
-108.925041
 31
0.000000
 0
LINE
 8
0
 6
CONTINUOUS
 62
7
 10
-48.341550
 20
-109.493624
 30
0.000000
 11
-48.422256
 21
-109.025072
 31
0.000000
 0
LINE
 8
0
 6
CONTINUOUS
 62
7
 10
-47.351352
 20
-109.687665
 30
0.000000
 11
-47.461217
 21
-109.310479
 31
0.000000
 0
LINE
 8
0
 6
CONTINUOUS
 62
7
 10
-48.192083
 20
-109.999601
 30
0.000000
 11
-48.341550
 21
-109.493624
 31
0.000000
 0
LINE
 8
0
 6
CONTINUOUS
 62
7
 10
-47.204298
 20
-110.037205
 30
0.000000
 11
-47.351352
 21
-109.687665
 31
0.000000
 0
LINE
 8
0
 6
CONTINUOUS
 62
7
 10
-48.192083
 20
-109.999601
 30
0.000000
 11
-48.007711
 21
-110.441743
 31
0.000000
 0
LINE
 8
0
 6
CONTINUOUS
 62
7
 10
-47.011187
 20
-110.386433
 30
0.000000
 11
-47.204298
 21
-110.037205
 31
0.000000
 0
LINE
 8
0
 6
CONTINUOUS
 62
7
 10
-47.774045
 20
-110.864311
 30
0.000000
 11
-48.007711
 21
-110.441743
 31
0.000000
 0
LINE
 8
0
 6
CONTINUOUS
 62
7
 10
-47.493574
 20
-111.262804
 30
0.000000
 11
-47.774045
 21
-110.864311
 31
0.000000
 0
LINE
 8
0
 6
CONTINUOUS
 62
7
 10
-46.540707
 20
-110.995235
 30
0.000000
 11
-46.811223
 21
-110.686443
 31
0.000000
 0
LINE
 8
0
 6
CONTINUOUS
 62
7
 10
-47.169283
 20
-111.632980
 30
0.000000
 11
-47.493574
 21
-111.262804
 31
0.000000
 0
LINE
 8
0
 6
CONTINUOUS
 62
7
 10
-46.236520
 20
-111.277117
 30
0.000000
 11
-46.540707
 21
-110.995235
 31
0.000000
 0
LINE
 8
0
 6
CONTINUOUS
 62
7
 10
-46.804627
 20
-111.970895
 30
0.000000
 11
-47.169283
 21
-111.632980
 31
0.000000
 0
LINE
 8
0
 6
CONTINUOUS
 62
7
 10
-45.901899
 20
-111.529086
 30
0.000000
 11
-46.236520
 21
-111.277117
 31
0.000000
 0
LINE
 8
0
 6
CONTINUOUS
 62
7
 10
-46.403488
 20
-112.272953
 30
0.000000
 11
-46.804627
 21
-111.970895
 31
0.000000
 0
LINE
 8
0
 6
CONTINUOUS
 62
7
 10
-45.540408
 20
-111.748461
 30
0.000000
 11
-45.901899
 21
-111.529086
 31
0.000000
 0
LINE
 8
0
 6
CONTINUOUS
 62
7
 10
-45.970138
 20
-112.535937
 30
0.000000
 11
-46.403488
 21
-112.272953
 31
0.000000
 0
LINE
 8
0
 6
CONTINUOUS
 62
7
 10
-45.155898
 20
-111.932904
 30
0.000000
 11
-45.540408
 21
-111.748461
 31
0.000000
 0
LINE
 8
0
 6
CONTINUOUS
 62
7
 10
-45.509193
 20
-112.757045
 30
0.000000
 11
-45.970138
 21
-112.535937
 31
0.000000
 0
LINE
 8
0
 6
CONTINUOUS
 62
7
 10
-44.752131
 20
-112.080573
 30
0.000000
 11
-45.155898
 21
-111.932904
 31
0.000000
 0
LINE
 8
0
 6
CONTINUOUS
 62
7
 10
-45.021645
 20
-112.939278
 30
0.000000
 11
-45.509193
 21
-112.757045
 31
0.000000
 0
LINE
 8
0
 6
CONTINUOUS
 62
7
 10
-43.900275
 20
-113.233808
 30
0.000000
 11
-45.021645
 21
-112.939278
 31
0.000000
 0
LINE
 8
0
 6
CONTINUOUS
 62
7
 10
-44.752131
 20
-112.080573
 30
0.000000
 11
-43.715057
 21
-112.356530
 31
0.000000
 0
LINE
 8
0
 6
CONTINUOUS
 62
7
 10
-42.646158
 20
-112.535181
 30
0.000000
 11
-43.715057
 21
-112.356530
 31
0.000000
 0
LINE
 8
0
 6
CONTINUOUS
 62
7
 10
-42.752490
 20
-113.425644
 30
0.000000
 11
-43.900275
 21
-113.233808
 31
0.000000
 0
LINE
 8
0
 6
CONTINUOUS
 62
7
 10
-41.562945
 20
-112.616509
 30
0.000000
 11
-42.646158
 21
-112.535181
 31
0.000000
 0
LINE
 8
0
 6
CONTINUOUS
 62
7
 10
-41.589336
 20
-113.512974
 30
0.000000
 11
-42.752490
 21
-113.425644
 31
0.000000
 0
LINE
 8
0
 6
CONTINUOUS
 62
7
 10
-40.476179
 20
-112.599707
 30
0.000000
 11
-41.562945
 21
-112.616509
 31
0.000000
 0
LINE
 8
0
 6
CONTINUOUS
 62
7
 10
-40.422367
 20
-113.494931
 30
0.000000
 11
-41.589336
 21
-113.512974
 31
0.000000
 0
LINE
 8
0
 6
CONTINUOUS
 62
7
 10
-39.396657
 20
-112.484940
 30
0.000000
 11
-40.476179
 21
-112.599707
 31
0.000000
 0
LINE
 8
0
 6
CONTINUOUS
 62
7
 10
-39.263176
 20
-113.371695
 30
0.000000
 11
-40.422367
 21
-113.494931
 31
0.000000
 0
LINE
 8
0
 6
CONTINUOUS
 62
7
 10
-38.335103
 20
-112.273349
 30
0.000000
 11
-39.396657
 21
-112.484940
 31
0.000000
 0
LINE
 8
0
 6
CONTINUOUS
 62
7
 10
-38.123279
 20
-113.144489
 30
0.000000
 11
-39.263176
 21
-113.371695
 31
0.000000
 0
LINE
 8
0
 6
CONTINUOUS
 62
7
 10
-37.302062
 20
-111.967037
 30
0.000000
 11
-38.335103
 21
-112.273349
 31
0.000000
 0
LINE
 8
0
 6
CONTINUOUS
 62
7
 10
-37.013999
 20
-112.815570
 30
0.000000
 11
-38.123279
 21
-113.144489
 31
0.000000
 0
LINE
 8
0
 6
CONTINUOUS
 62
7
 10
-36.307797
 20
-111.569045
 30
0.000000
 11
-37.302062
 21
-111.967037
 31
0.000000
 0
LINE
 8
0
 6
CONTINUOUS
 62
7
 10
-35.946357
 20
-112.388206
 30
0.000000
 11
-37.013999
 21
-112.815570
 31
0.000000
 0
LINE
 8
0
 6
CONTINUOUS
 62
7
 10
-35.362185
 20
-111.083327
 30
0.000000
 11
-36.307797
 21
-111.569045
 31
0.000000
 0
LINE
 8
0
 6
CONTINUOUS
 62
7
 10
-34.930958
 20
-111.866643
 30
0.000000
 11
-35.946357
 21
-112.388206
 31
0.000000
 0
LINE
 8
0
 6
CONTINUOUS
 62
7
 10
-34.930958
 20
-111.866643
 30
0.000000
 11
-33.986761
 21
-111.261744
 31
0.000000
 0
LINE
 8
0
 6
CONTINUOUS
 62
7
 10
-33.393368
 20
-110.843841
 30
0.000000
 11
-33.986761
 21
-111.261744
 31
0.000000
 0
LINE
 8
0
 6
CONTINUOUS
 62
7
 10
-33.869797
 20
-110.087251
 30
0.000000
 11
-34.492869
 21
-110.525553
 31
0.000000
 0
LINE
 8
0
 6
CONTINUOUS
 62
7
 10
-33.185125
 20
-109.703939
 30
0.000000
 11
-33.869797
 21
-110.087251
 31
0.000000
 0
LINE
 8
0
 6
CONTINUOUS
 62
7
 10
-32.789177
 20
-110.505586
 30
0.000000
 11
-33.393368
 21
-110.843841
 31
0.000000
 0
LINE
 8
0
 6
CONTINUOUS
 62
7
 10
-32.464605
 20
-109.393203
 30
0.000000
 11
-33.185125
 21
-109.703939
 31
0.000000
 0
LINE
 8
0
 6
CONTINUOUS
 62
7
 10
-32.153353
 20
-110.231376
 30
0.000000
 11
-32.789177
 21
-110.505586
 31
0.000000
 0
LINE
 8
0
 6
CONTINUOUS
 62
7
 10
-31.715907
 20
-109.158351
 30
0.000000
 11
-32.464605
 21
-109.393203
 31
0.000000
 0
LINE
 8
0
 6
CONTINUOUS
 62
7
 10
-31.492662
 20
-110.024130
 30
0.000000
 11
-32.153353
 21
-110.231376
 31
0.000000
 0
LINE
 8
0
 6
CONTINUOUS
 62
7
 10
-30.946997
 20
-109.001881
 30
0.000000
 11
-31.715907
 21
-109.158351
 31
0.000000
 0
LINE
 8
0
 6
CONTINUOUS
 62
7
 10
-30.814136
 20
-109.886054
 30
0.000000
 11
-31.492662
 21
-110.024130
 31
0.000000
 0
LINE
 8
0
 6
CONTINUOUS
 62
7
 10
-30.166059
 20
-108.925460
 30
0.000000
 11
-30.946997
 21
-109.001881
 31
0.000000
 0
LINE
 8
0
 6
CONTINUOUS
 62
7
 10
-30.124995
 20
-109.818616
 30
0.000000
 11
-30.814136
 21
-109.886054
 31
0.000000
 0
LINE
 8
0
 6
CONTINUOUS
 62
7
 10
-29.381403
 20
-108.929901
 30
0.000000
 11
-30.166059
 21
-108.925460
 31
0.000000
 0
LINE
 8
0
 6
CONTINUOUS
 62
7
 10
-29.432573
 20
-109.822534
 30
0.000000
 11
-30.124995
 21
-109.818616
 31
0.000000
 0
LINE
 8
0
 6
CONTINUOUS
 62
7
 10
-28.601380
 20
-109.015155
 30
0.000000
 11
-29.381403
 21
-108.929901
 31
0.000000
 0
LINE
 8
0
 6
CONTINUOUS
 62
7
 10
-28.744240
 20
-109.897767
 30
0.000000
 11
-29.432573
 21
-109.822534
 31
0.000000
 0
LINE
 8
0
 6
CONTINUOUS
 62
7
 10
-27.834290
 20
-109.180317
 30
0.000000
 11
-28.601380
 21
-109.015155
 31
0.000000
 0
LINE
 8
0
 6
CONTINUOUS
 62
7
 10
-28.067320
 20
-110.043515
 30
0.000000
 11
-28.744240
 21
-109.897767
 31
0.000000
 0
LINE
 8
0
 6
CONTINUOUS
 62
7
 10
-27.088298
 20
-109.423628
 30
0.000000
 11
-27.834290
 21
-109.180317
 31
0.000000
 0
LINE
 8
0
 6
CONTINUOUS
 62
7
 10
-27.409017
 20
-110.258225
 30
0.000000
 11
-28.067320
 21
-110.043515
 31
0.000000
 0
LINE
 8
0
 6
CONTINUOUS
 62
7
 10
-26.371342
 20
-109.742498
 30
0.000000
 11
-27.088298
 21
-109.423628
 31
0.000000
 0
LINE
 8
0
 6
CONTINUOUS
 62
7
 10
-26.776337
 20
-110.539613
 30
0.000000
 11
-27.409017
 21
-110.258225
 31
0.000000
 0
LINE
 8
0
 6
CONTINUOUS
 62
7
 10
-25.691052
 20
-110.133535
 30
0.000000
 11
-26.371342
 21
-109.742498
 31
0.000000
 0
LINE
 8
0
 6
CONTINUOUS
 62
7
 10
-26.176013
 20
-110.884685
 30
0.000000
 11
-26.776337
 21
-110.539613
 31
0.000000
 0
LINE
 8
0
 6
CONTINUOUS
 62
7
 10
-25.054667
 20
-110.592577
 30
0.000000
 11
-25.691052
 21
-110.133535
 31
0.000000
 0
LINE
 8
0
 6
CONTINUOUS
 62
7
 10
-25.614434
 20
-111.289768
 30
0.000000
 11
-26.176013
 21
-110.884685
 31
0.000000
 0
LINE
 8
0
 6
CONTINUOUS
 62
7
 10
-24.468961
 20
-111.114739
 30
0.000000
 11
-25.054667
 21
-110.592577
 31
0.000000
 0
LINE
 8
0
 6
CONTINUOUS
 62
7
 10
-25.097576
 20
-111.750551
 30
0.000000
 11
-25.614434
 21
-111.289768
 31
0.000000
 0
LINE
 8
0
 6
CONTINUOUS
 62
7
 10
-23.940166
 20
-111.694464
 30
0.000000
 11
-24.468961
 21
-111.114739
 31
0.000000
 0
LINE
 8
0
 6
CONTINUOUS
 62
7
 10
-24.630940
 20
-112.262130
 30
0.000000
 11
-25.097576
 21
-111.750551
 31
0.000000
 0
LINE
 8
0
 6
CONTINUOUS
 62
7
 10
-23.473910
 20
-112.325582
 30
0.000000
 11
-23.940166
 21
-111.694464
 31
0.000000
 0
LINE
 8
0
 6
CONTINUOUS
 62
7
 10
-24.219491
 20
-112.819062
 30
0.000000
 11
-24.630940
 21
-112.262130
 31
0.000000
 0
LINE
 8
0
 6
CONTINUOUS
 62
7
 10
-23.075156
 20
-113.001377
 30
0.000000
 11
-23.473910
 21
-112.325582
 31
0.000000
 0
LINE
 8
0
 6
CONTINUOUS
 62
7
 10
-23.867609
 20
-113.415419
 30
0.000000
 11
-24.219491
 21
-112.819062
 31
0.000000
 0
LINE
 8
0
 6
CONTINUOUS
 62
7
 10
-22.748145
 20
-113.714658
 30
0.000000
 11
-23.075156
 21
-113.001377
 31
0.000000
 0
LINE
 8
0
 6
CONTINUOUS
 62
7
 10
-23.579038
 20
-114.044855
 30
0.000000
 11
-23.867609
 21
-113.415419
 31
0.000000
 0
LINE
 8
0
 6
CONTINUOUS
 62
7
 10
-22.496359
 20
-114.457832
 30
0.000000
 11
-22.748145
 21
-113.714658
 31
0.000000
 0
LINE
 8
0
 6
CONTINUOUS
 62
7
 10
-23.356848
 20
-114.700672
 30
0.000000
 11
-23.579038
 21
-114.044855
 31
0.000000
 0
LINE
 8
0
 6
CONTINUOUS
 62
7
 10
-22.322477
 20
-115.222992
 30
0.000000
 11
-22.496359
 21
-114.457832
 31
0.000000
 0
LINE
 8
0
 6
CONTINUOUS
 62
7
 10
-23.203406
 20
-115.375889
 30
0.000000
 11
-23.356848
 21
-114.700672
 31
0.000000
 0
LINE
 8
0
 6
CONTINUOUS
 62
7
 10
-22.228349
 20
-116.001995
 30
0.000000
 11
-22.322477
 21
-115.222992
 31
0.000000
 0
LINE
 8
0
 6
CONTINUOUS
 62
7
 10
-23.120343
 20
-116.063321
 30
0.000000
 11
-23.203406
 21
-115.375889
 31
0.000000
 0
LINE
 8
0
 6
CONTINUOUS
 62
7
 10
-22.214978
 20
-116.786549
 30
0.000000
 11
-22.228349
 21
-116.001995
 31
0.000000
 0
LINE
 8
0
 6
CONTINUOUS
 62
7
 10
-23.108543
 20
-116.755654
 30
0.000000
 11
-23.120343
 21
-116.063321
 31
0.000000
 0
LINE
 8
0
 6
CONTINUOUS
 62
7
 10
-22.282505
 20
-117.568306
 30
0.000000
 11
-22.214978
 21
-116.786549
 31
0.000000
 0
LINE
 8
0
 6
CONTINUOUS
 62
7
 10
-23.168133
 20
-117.445517
 30
0.000000
 11
-23.108543
 21
-116.755654
 31
0.000000
 0
LINE
 8
0
 6
CONTINUOUS
 62
7
 10
-22.430213
 20
-118.338947
 30
0.000000
 11
-22.282505
 21
-117.568306
 31
0.000000
 0
LINE
 8
0
 6
CONTINUOUS
 62
7
 10
-23.298477
 20
-118.125571
 30
0.000000
 11
-23.168133
 21
-117.445517
 31
0.000000
 0
LINE
 8
0
 6
CONTINUOUS
 62
7
 10
-22.656528
 20
-119.090270
 30
0.000000
 11
-22.430213
 21
-118.338947
 31
0.000000
 0
LINE
 8
0
 6
CONTINUOUS
 62
7
 10
-23.498190
 20
-118.788578
 30
0.000000
 11
-23.298477
 21
-118.125571
 31
0.000000
 0
LINE
 8
0
 6
CONTINUOUS
 62
7
 10
-22.959042
 20
-119.814280
 30
0.000000
 11
-22.656528
 21
-119.090270
 31
0.000000
 0
LINE
 8
0
 6
CONTINUOUS
 62
7
 10
-23.765145
 20
-119.427482
 30
0.000000
 11
-23.498190
 21
-118.788578
 31
0.000000
 0
LINE
 8
0
 6
CONTINUOUS
 62
7
 10
-23.334537
 20
-120.503270
 30
0.000000
 11
-22.959042
 21
-119.814280
 31
0.000000
 0
LINE
 8
0
 6
CONTINUOUS
 62
7
 10
-24.096501
 20
-120.035484
 30
0.000000
 11
-23.765145
 21
-119.427482
 31
0.000000
 0
LINE
 8
0
 6
CONTINUOUS
 62
7
 10
-23.779016
 20
-121.149910
 30
0.000000
 11
-23.334537
 21
-120.503270
 31
0.000000
 0
LINE
 8
0
 6
CONTINUOUS
 62
7
 10
-24.488732
 20
-120.606113
 30
0.000000
 11
-24.096501
 21
-120.035484
 31
0.000000
 0
LINE
 8
0
 6
CONTINUOUS
 62
7
 10
-24.287749
 20
-121.747318
 30
0.000000
 11
-23.779016
 21
-121.149910
 31
0.000000
 0
LINE
 8
0
 6
CONTINUOUS
 62
7
 10
-24.937665
 20
-121.133297
 30
0.000000
 11
-24.488732
 21
-120.606113
 31
0.000000
 0
LINE
 8
0
 6
CONTINUOUS
 62
7
 10
-24.855321
 20
-122.289135
 30
0.000000
 11
-24.287749
 21
-121.747318
 31
0.000000
 0
LINE
 8
0
 6
CONTINUOUS
 62
7
 10
-25.438521
 20
-121.611425
 30
0.000000
 11
-24.937665
 21
-121.133297
 31
0.000000
 0
LINE
 8
0
 6
CONTINUOUS
 62
7
 10
-25.475694
 20
-122.769596
 30
0.000000
 11
-24.855321
 21
-122.289135
 31
0.000000
 0
LINE
 8
0
 6
CONTINUOUS
 62
7
 10
-25.985970
 20
-122.035409
 30
0.000000
 11
-25.438521
 21
-121.611425
 31
0.000000
 0
LINE
 8
0
 6
CONTINUOUS
 62
7
 10
-26.142264
 20
-123.183588
 30
0.000000
 11
-25.475694
 21
-122.769596
 31
0.000000
 0
LINE
 8
0
 6
CONTINUOUS
 62
7
 10
-26.574186
 20
-122.400737
 30
0.000000
 11
-25.985970
 21
-122.035409
 31
0.000000
 0
LINE
 8
0
 6
CONTINUOUS
 62
7
 10
-26.847938
 20
-123.526705
 30
0.000000
 11
-26.142264
 21
-123.183588
 31
0.000000
 0
LINE
 8
0
 6
CONTINUOUS
 62
7
 10
-27.196910
 20
-122.703521
 30
0.000000
 11
-26.574186
 21
-122.400737
 31
0.000000
 0
LINE
 8
0
 6
CONTINUOUS
 62
7
 10
-27.585205
 20
-123.795295
 30
0.000000
 11
-26.847938
 21
-123.526705
 31
0.000000
 0
LINE
 8
0
 6
CONTINUOUS
 62
7
 10
-27.847514
 20
-122.940539
 30
0.000000
 11
-27.196910
 21
-122.703521
 31
0.000000
 0
LINE
 8
0
 6
CONTINUOUS
 62
7
 10
-28.346221
 20
-123.986500
 30
0.000000
 11
-27.585205
 21
-123.795295
 31
0.000000
 0
LINE
 8
0
 6
CONTINUOUS
 62
7
 10
-28.519075
 20
-123.109269
 30
0.000000
 11
-27.847514
 21
-122.940539
 31
0.000000
 0
LINE
 8
0
 6
CONTINUOUS
 62
7
 10
-29.122887
 20
-124.098285
 30
0.000000
 11
-28.346221
 21
-123.986500
 31
0.000000
 0
LINE
 8
0
 6
CONTINUOUS
 62
7
 10
-29.204445
 20
-123.207914
 30
0.000000
 11
-28.519075
 21
-123.109269
 31
0.000000
 0
LINE
 8
0
 6
CONTINUOUS
 62
7
 10
-29.906936
 20
-124.129461
 30
0.000000
 11
-29.122887
 21
-124.098285
 31
0.000000
 0
LINE
 8
0
 6
CONTINUOUS
 62
7
 10
-29.896331
 20
-123.235425
 30
0.000000
 11
-29.204445
 21
-123.207914
 31
0.000000
 0
LINE
 8
0
 6
CONTINUOUS
 62
7
 10
-30.690024
 20
-124.079696
 30
0.000000
 11
-29.906936
 21
-124.129461
 31
0.000000
 0
LINE
 8
0
 6
CONTINUOUS
 62
7
 10
-30.587369
 20
-123.191510
 30
0.000000
 11
-29.896331
 21
-123.235425
 31
0.000000
 0
LINE
 8
0
 6
CONTINUOUS
 62
7
 10
-31.463819
 20
-123.949520
 30
0.000000
 11
-30.690024
 21
-124.079696
 31
0.000000
 0
LINE
 8
0
 6
CONTINUOUS
 62
7
 10
-31.270207
 20
-123.076635
 30
0.000000
 11
-30.587369
 21
-123.191510
 31
0.000000
 0
LINE
 8
0
 6
CONTINUOUS
 62
7
 10
-32.220086
 20
-123.740317
 30
0.000000
 11
-31.463819
 21
-123.949520
 31
0.000000
 0
LINE
 8
0
 6
CONTINUOUS
 62
7
 10
-31.937576
 20
-122.892024
 30
0.000000
 11
-31.270207
 21
-123.076635
 31
0.000000
 0
LINE
 8
0
 6
CONTINUOUS
 62
7
 10
-32.950775
 20
-123.454314
 30
0.000000
 11
-32.220086
 21
-123.740317
 31
0.000000
 0
LINE
 8
0
 6
CONTINUOUS
 62
7
 10
-32.582375
 20
-122.639640
 30
0.000000
 11
-31.937576
 21
-122.892024
 31
0.000000
 0
LINE
 8
0
 6
CONTINUOUS
 62
7
 10
-33.648112
 20
-123.094555
 30
0.000000
 11
-32.950775
 21
-123.454314
 31
0.000000
 0
LINE
 8
0
 6
CONTINUOUS
 62
7
 10
-33.197741
 20
-122.322170
 30
0.000000
 11
-32.582375
 21
-122.639640
 31
0.000000
 0
LINE
 8
0
 6
CONTINUOUS
 62
7
 10
-34.304674
 20
-122.664868
 30
0.000000
 11
-33.648112
 21
-123.094555
 31
0.000000
 0
LINE
 8
0
 6
CONTINUOUS
 62
7
 10
-33.777126
 20
-121.942992
 30
0.000000
 11
-33.197741
 21
-122.322170
 31
0.000000
 0
LINE
 8
0
 6
CONTINUOUS
 62
7
 10
-34.913475
 20
-122.169827
 30
0.000000
 11
-34.304674
 21
-122.664868
 31
0.000000
 0
LINE
 8
0
 6
CONTINUOUS
 62
7
 10
-34.314364
 20
-121.506141
 30
0.000000
 11
-33.777126
 21
-121.942992
 31
0.000000
 0
LINE
 8
0
 6
CONTINUOUS
 62
7
 10
-35.468036
 20
-121.614699
 30
0.000000
 11
-34.913475
 21
-122.169827
 31
0.000000
 0
LINE
 8
0
 6
CONTINUOUS
 62
7
 10
-34.803738
 20
-121.016267
 30
0.000000
 11
-34.314364
 21
-121.506141
 31
0.000000
 0
LINE
 8
0
 6
CONTINUOUS
 62
7
 10
-35.962455
 20
-121.005393
 30
0.000000
 11
-35.468036
 21
-121.614699
 31
0.000000
 0
LINE
 8
0
 6
CONTINUOUS
 62
7
 10
-35.240039
 20
-120.478583
 30
0.000000
 11
-34.803738
 21
-121.016267
 31
0.000000
 0
LINE
 8
0
 6
CONTINUOUS
 62
7
 10
-36.391470
 20
-120.348391
 30
0.000000
 11
-35.962455
 21
-121.005393
 31
0.000000
 0
LINE
 8
0
 6
CONTINUOUS
 62
7
 10
-35.618625
 20
-119.898810
 30
0.000000
 11
-35.240039
 21
-120.478583
 31
0.000000
 0
LINE
 8
0
 6
CONTINUOUS
 62
7
 10
-36.750516
 20
-119.650688
 30
0.000000
 11
-36.391470
 21
-120.348391
 31
0.000000
 0
LINE
 8
0
 6
CONTINUOUS
 62
7
 10
-35.935466
 20
-119.283120
 30
0.000000
 11
-35.618625
 21
-119.898810
 31
0.000000
 0
LINE
 8
0
 6
CONTINUOUS
 62
7
 10
-36.750516
 20
-119.650688
 30
0.000000
 11
-37.034040
 21
-118.943587
 31
0.000000
 0
LINE
 8
0
 6
CONTINUOUS
 62
7
 10
-36.195640
 20
-118.616412
 30
0.000000
 11
-35.935466
 21
-119.283120
 31
0.000000
 0
LINE
 8
0
 6
CONTINUOUS
 62
7
 10
-36.195640
 20
-118.616412
 30
0.000000
 11
-36.445939
 21
-117.976218
 31
0.000000
 0
LINE
 8
0
 6
CONTINUOUS
 62
7
 10
-37.260546
 20
-118.344841
 30
0.000000
 11
-37.034040
 21
-118.943587
 31
0.000000
 0
LINE
 8
0
 6
CONTINUOUS
 62
7
 10
-37.544036
 20
-117.796548
 30
0.000000
 11
-37.260546
 21
-118.344841
 31
0.000000
 0
LINE
 8
0
 6
CONTINUOUS
 62
7
 10
-36.772319
 20
-117.344975
 30
0.000000
 11
-36.445939
 21
-117.976218
 31
0.000000
 0
LINE
 8
0
 6
CONTINUOUS
 62
7
 10
-37.883166
 20
-117.280812
 30
0.000000
 11
-37.544036
 21
-117.796548
 31
0.000000
 0
LINE
 8
0
 6
CONTINUOUS
 62
7
 10
-37.162754
 20
-116.751214
 30
0.000000
 11
-36.772319
 21
-117.344975
 31
0.000000
 0
LINE
 8
0
 6
CONTINUOUS
 62
7
 10
-38.274235
 20
-116.803259
 30
0.000000
 11
-37.883166
 21
-117.280812
 31
0.000000
 0
LINE
 8
0
 6
CONTINUOUS
 62
7
 10
-37.612988
 20
-116.201413
 30
0.000000
 11
-37.162754
 21
-116.751214
 31
0.000000
 0
LINE
 8
0
 6
CONTINUOUS
 62
7
 10
-38.712979
 20
-116.369098
 30
0.000000
 11
-38.274235
 21
-116.803259
 31
0.000000
 0
LINE
 8
0
 6
CONTINUOUS
 62
7
 10
-38.118108
 20
-115.701568
 30
0.000000
 11
-37.612988
 21
-116.201413
 31
0.000000
 0
LINE
 8
0
 6
CONTINUOUS
 62
7
 10
-39.194611
 20
-115.983063
 30
0.000000
 11
-38.712979
 21
-116.369098
 31
0.000000
 0
LINE
 8
0
 6
CONTINUOUS
 62
7
 10
-38.672606
 20
-115.257132
 30
0.000000
 11
-38.118108
 21
-115.701568
 31
0.000000
 0
LINE
 8
0
 6
CONTINUOUS
 62
7
 10
-39.713879
 20
-115.649367
 30
0.000000
 11
-39.194611
 21
-115.983063
 31
0.000000
 0
LINE
 8
0
 6
CONTINUOUS
 62
7
 10
-39.270432
 20
-114.872951
 30
0.000000
 11
-38.672606
 21
-115.257132
 31
0.000000
 0
LINE
 8
0
 6
CONTINUOUS
 62
7
 10
-40.265118
 20
-115.371648
 30
0.000000
 11
-39.713879
 21
-115.649367
 31
0.000000
 0
LINE
 8
0
 6
CONTINUOUS
 62
7
 10
-39.905067
 20
-114.553217
 30
0.000000
 11
-39.270432
 21
-114.872951
 31
0.000000
 0
LINE
 8
0
 6
CONTINUOUS
 62
7
 10
-40.842316
 20
-115.152936
 30
0.000000
 11
-40.265118
 21
-115.371648
 31
0.000000
 0
LINE
 8
0
 6
CONTINUOUS
 62
7
 10
-40.569588
 20
-114.301416
 30
0.000000
 11
-39.905067
 21
-114.553217
 31
0.000000
 0
LINE
 8
0
 6
CONTINUOUS
 62
7
 10
-41.439177
 20
-114.995617
 30
0.000000
 11
-40.842316
 21
-115.152936
 31
0.000000
 0
LINE
 8
0
 6
CONTINUOUS
 62
7
 10
-41.256747
 20
-114.120297
 30
0.000000
 11
-40.569588
 21
-114.301416
 31
0.000000
 0
LINE
 8
0
 6
CONTINUOUS
 62
7
 10
-42.049190
 20
-114.901406
 30
0.000000
 11
-41.439177
 21
-114.995617
 31
0.000000
 0
LINE
 8
0
 6
CONTINUOUS
 62
7
 10
-41.959048
 20
-114.011833
 30
0.000000
 11
-41.256747
 21
-114.120297
 31
0.000000
 0
LINE
 8
0
 6
CONTINUOUS
 62
7
 10
-42.665703
 20
-114.871331
 30
0.000000
 11
-42.049190
 21
-114.901406
 31
0.000000
 0
LINE
 8
0
 6
CONTINUOUS
 62
7
 10
-42.668832
 20
-113.977208
 30
0.000000
 11
-41.959048
 21
-114.011833
 31
0.000000
 0
LINE
 8
0
 6
CONTINUOUS
 62
7
 10
-43.281990
 20
-114.905720
 30
0.000000
 11
-42.665703
 21
-114.871331
 31
0.000000
 0
LINE
 8
0
 6
CONTINUOUS
 62
7
 10
-43.378356
 20
-114.016799
 30
0.000000
 11
-42.668832
 21
-113.977208
 31
0.000000
 0
LINE
 8
0
 6
CONTINUOUS
 62
7
 10
-43.891329
 20
-115.004198
 30
0.000000
 11
-43.281990
 21
-114.905720
 31
0.000000
 0
LINE
 8
0
 6
CONTINUOUS
 62
7
 10
-44.079881
 20
-114.130176
 30
0.000000
 11
-43.378356
 21
-114.016799
 31
0.000000
 0
LINE
 8
0
 6
CONTINUOUS
 62
7
 10
-44.487074
 20
-115.165691
 30
0.000000
 11
-43.891329
 21
-115.004198
 31
0.000000
 0
LINE
 8
0
 6
CONTINUOUS
 62
7
 10
-44.765755
 20
-114.316101
 30
0.000000
 11
-44.079881
 21
-114.130176
 31
0.000000
 0
LINE
 8
0
 6
CONTINUOUS
 62
7
 10
-45.062727
 20
-115.388437
 30
0.000000
 11
-44.487074
 21
-115.165691
 31
0.000000
 0
LINE
 8
0
 6
CONTINUOUS
 62
7
 10
-45.428497
 20
-114.572546
 30
0.000000
 11
-44.765755
 21
-114.316101
 31
0.000000
 0
LINE
 8
0
 6
CONTINUOUS
 62
7
 10
-45.612009
 20
-115.670008
 30
0.000000
 11
-45.062727
 21
-115.388437
 31
0.000000
 0
LINE
 8
0
 6
CONTINUOUS
 62
7
 10
-46.060879
 20
-114.896714
 30
0.000000
 11
-45.428497
 21
-114.572546
 31
0.000000
 0
LINE
 8
0
 6
CONTINUOUS
 62
7
 10
-46.128928
 20
-116.007330
 30
0.000000
 11
-45.612009
 21
-115.670008
 31
0.000000
 0
LINE
 8
0
 6
CONTINUOUS
 62
7
 10
-46.656002
 20
-115.285070
 30
0.000000
 11
-46.060879
 21
-114.896714
 31
0.000000
 0
LINE
 8
0
 6
CONTINUOUS
 62
7
 10
-46.607847
 20
-116.396726
 30
0.000000
 11
-46.128928
 21
-116.007330
 31
0.000000
 0
LINE
 8
0
 6
CONTINUOUS
 62
7
 10
-47.207375
 20
-115.733377
 30
0.000000
 11
-46.656002
 21
-115.285070
 31
0.000000
 0
LINE
 8
0
 6
CONTINUOUS
 62
7
 10
-47.043541
 20
-116.833947
 30
0.000000
 11
-46.607847
 21
-116.396726
 31
0.000000
 0
LINE
 8
0
 6
CONTINUOUS
 62
7
 10
-47.708985
 20
-116.236745
 30
0.000000
 11
-47.207375
 21
-115.733377
 31
0.000000
 0
LINE
 8
0
 6
CONTINUOUS
 62
7
 10
-47.431259
 20
-117.314226
 30
0.000000
 11
-47.043541
 21
-116.833947
 31
0.000000
 0
LINE
 8
0
 6
CONTINUOUS
 62
7
 10
-48.155359
 20
-116.789683
 30
0.000000
 11
-47.708985
 21
-116.236745
 31
0.000000
 0
LINE
 8
0
 6
CONTINUOUS
 62
7
 10
-47.766770
 20
-117.832323
 30
0.000000
 11
-47.431259
 21
-117.314226
 31
0.000000
 0
LINE
 8
0
 6
CONTINUOUS
 62
7
 10
-48.541630
 20
-117.386162
 30
0.000000
 11
-48.155359
 21
-116.789683
 31
0.000000
 0
LINE
 8
0
 6
CONTINUOUS
 62
7
 10
-48.046417
 20
-118.382586
 30
0.000000
 11
-47.766770
 21
-117.832323
 31
0.000000
 0
LINE
 8
0
 6
CONTINUOUS
 62
7
 10
-48.863583
 20
-118.019674
 30
0.000000
 11
-48.541630
 21
-117.386162
 31
0.000000
 0
LINE
 8
0
 6
CONTINUOUS
 62
7
 10
-48.267147
 20
-118.959015
 30
0.000000
 11
-48.046417
 21
-118.382586
 31
0.000000
 0
LINE
 8
0
 6
CONTINUOUS
 62
7
 10
-49.117707
 20
-118.683310
 30
0.000000
 11
-48.863583
 21
-118.019674
 31
0.000000
 0
LINE
 8
0
 6
CONTINUOUS
 62
7
 10
-48.426554
 20
-119.555322
 30
0.000000
 11
-48.267147
 21
-118.959015
 31
0.000000
 0
LINE
 8
0
 6
CONTINUOUS
 62
7
 10
-49.301231
 20
-119.369830
 30
0.000000
 11
-49.117707
 21
-118.683310
 31
0.000000
 0
LINE
 8
0
 6
CONTINUOUS
 62
7
 10
-48.522899
 20
-120.165002
 30
0.000000
 11
-48.426554
 21
-119.555322
 31
0.000000
 0
LINE
 8
0
 6
CONTINUOUS
 62
7
 10
-49.412152
 20
-120.071748
 30
0.000000
 11
-49.301231
 21
-119.369830
 31
0.000000
 0
LINE
 8
0
 6
CONTINUOUS
 62
7
 10
-49.412152
 20
-120.071748
 30
0.000000
 11
-49.448657
 21
-120.769871
 31
0.000000
 0
LINE
 8
0
 6
CONTINUOUS
 62
7
 10
-49.448657
 20
-120.769871
 30
0.000000
 11
-49.448657
 21
-122.003575
 31
0.000000
 0
LINE
 8
0
 6
CONTINUOUS
 62
7
 10
-48.556319
 20
-120.781369
 30
0.000000
 11
-48.548657
 21
-122.003575
 31
0.000000
 0
LINE
 8
0
 6
CONTINUOUS
 62
7
 10
-49.448657
 20
-122.999991
 30
0.000000
 11
-49.448657
 21
-122.003575
 31
0.000000
 0
LINE
 8
0
 6
CONTINUOUS
 62
7
 10
-48.548657
 20
-122.999991
 30
0.000000
 11
-48.548657
 21
-122.003575
 31
0.000000
 0
LINE
 8
0
 6
CONTINUOUS
 62
7
 10
-48.548657
 20
-122.999991
 30
0.000000
 11
-48.556319
 21
-122.999991
 31
0.000000
 0
LINE
 8
0
 6
CONTINUOUS
 62
7
 10
-48.556319
 20
-122.999991
 30
0.000000
 11
-48.616060
 21
-122.999991
 31
0.000000
 0
LINE
 8
0
 6
CONTINUOUS
 62
7
 10
-49.331211
 20
-122.999991
 30
0.000000
 11
-49.418270
 21
-122.999991
 31
0.000000
 0
LINE
 8
0
 6
CONTINUOUS
 62
7
 10
-48.616060
 20
-122.999991
 30
0.000000
 11
-48.727472
 21
-122.999991
 31
0.000000
 0
LINE
 8
0
 6
CONTINUOUS
 62
7
 10
-48.727472
 20
-122.999991
 30
0.000000
 11
-48.875509
 21
-122.999991
 31
0.000000
 0
LINE
 8
0
 6
CONTINUOUS
 62
7
 10
-48.875509
 20
-122.999991
 30
0.000000
 11
-49.040178
 21
-122.999991
 31
0.000000
 0
LINE
 8
0
 6
CONTINUOUS
 62
7
 10
-49.040178
 20
-122.999991
 30
0.000000
 11
-49.199240
 21
-122.999991
 31
0.000000
 0
LINE
 8
0
 6
CONTINUOUS
 62
7
 10
-49.199240
 20
-122.999991
 30
0.000000
 11
-49.331211
 21
-122.999991
 31
0.000000
 0
LINE
 8
0
 6
CONTINUOUS
 62
7
 10
-49.418270
 20
-122.999991
 30
0.000000
 11
-49.448657
 21
-122.999991
 31
0.000000
 0
LINE
 8
0
 6
CONTINUOUS
 62
7
 10
-46.782082
 20
-110.719708
 30
0.000000
 11
-47.011187
 21
-110.386433
 31
0.000000
 0
LINE
 8
0
 6
CONTINUOUS
 62
7
 10
-35.365030
 20
-111.084789
 30
0.000000
 11
-34.492869
 21
-110.525553
 31
0.000000
 0
LINE
 8
0
 6
CONTINUOUS
 62
7
 10
-48.522899
 20
-120.165002
 30
0.000000
 11
-48.556192
 21
-120.801684
 31
0.000000
 0
LINE
 8
0
 6
CONTINUOUS
 62
7
 10
-49.848874
 20
-122.999991
 30
0.000000
 11
-49.981630
 21
-122.999991
 31
0.000000
 0
LINE
 8
0
 6
CONTINUOUS
 62
7
 10
-49.601292
 20
-122.999991
 30
0.000000
 11
-49.848874
 21
-122.999991
 31
0.000000
 0
LINE
 8
0
 6
CONTINUOUS
 62
7
 10
-49.998657
 20
-122.999991
 30
0.000000
 11
-49.998657
 21
-124.999991
 31
0.000000
 0
LINE
 8
0
 6
CONTINUOUS
 62
7
 10
-49.981630
 20
-122.999991
 30
0.000000
 11
-49.998657
 21
-122.999991
 31
0.000000
 0
LINE
 8
0
 6
CONTINUOUS
 62
7
 10
-47.998657
 20
-122.999991
 30
0.000000
 11
-47.998657
 21
-124.999991
 31
0.000000
 0
LINE
 8
0
 6
CONTINUOUS
 62
7
 10
-47.998657
 20
-122.999991
 30
0.000000
 11
-48.066185
 21
-122.999991
 31
0.000000
 0
LINE
 8
0
 6
CONTINUOUS
 62
7
 10
-48.066185
 20
-122.999991
 30
0.000000
 11
-48.259648
 21
-122.999991
 31
0.000000
 0
LINE
 8
0
 6
CONTINUOUS
 62
7
 10
-48.259648
 20
-122.999991
 30
0.000000
 11
-48.552919
 21
-122.999991
 31
0.000000
 0
LINE
 8
0
 6
CONTINUOUS
 62
7
 10
-48.552919
 20
-122.999991
 30
0.000000
 11
-48.906389
 21
-122.999991
 31
0.000000
 0
LINE
 8
0
 6
CONTINUOUS
 62
7
 10
-48.906389
 20
-122.999991
 30
0.000000
 11
-49.272320
 21
-122.999991
 31
0.000000
 0
LINE
 8
0
 6
CONTINUOUS
 62
7
 10
-49.272320
 20
-122.999991
 30
0.000000
 11
-49.601292
 21
-122.999991
 31
0.000000
 0
LINE
 8
0
 6
CONTINUOUS
 62
7
 10
-49.848874
 20
-124.999991
 30
0.000000
 11
-49.981630
 21
-124.999991
 31
0.000000
 0
LINE
 8
0
 6
CONTINUOUS
 62
7
 10
-48.552919
 20
-124.999991
 30
0.000000
 11
-48.906389
 21
-124.999991
 31
0.000000
 0
LINE
 8
0
 6
CONTINUOUS
 62
7
 10
-48.906389
 20
-124.999991
 30
0.000000
 11
-49.272320
 21
-124.999991
 31
0.000000
 0
LINE
 8
0
 6
CONTINUOUS
 62
7
 10
-48.259648
 20
-124.999991
 30
0.000000
 11
-48.552919
 21
-124.999991
 31
0.000000
 0
LINE
 8
0
 6
CONTINUOUS
 62
7
 10
-49.981630
 20
-124.999991
 30
0.000000
 11
-49.998657
 21
-124.999991
 31
0.000000
 0
LINE
 8
0
 6
CONTINUOUS
 62
7
 10
-47.998657
 20
-124.999991
 30
0.000000
 11
-48.066185
 21
-124.999991
 31
0.000000
 0
LINE
 8
0
 6
CONTINUOUS
 62
7
 10
-48.066185
 20
-124.999991
 30
0.000000
 11
-48.259648
 21
-124.999991
 31
0.000000
 0
LINE
 8
0
 6
CONTINUOUS
 62
7
 10
-49.272320
 20
-124.999991
 30
0.000000
 11
-49.601292
 21
-124.999991
 31
0.000000
 0
LINE
 8
0
 6
CONTINUOUS
 62
7
 10
-49.601292
 20
-124.999991
 30
0.000000
 11
-49.848874
 21
-124.999991
 31
0.000000
 0
LINE
 8
0
 6
CONTINUOUS
 62
7
 10
-48.498657
 20
-125.499990
 30
0.000000
 11
-48.532421
 21
-125.499990
 31
0.000000
 0
LINE
 8
0
 6
CONTINUOUS
 62
7
 10
-49.299975
 20
-125.499990
 30
0.000000
 11
-49.423766
 21
-125.499990
 31
0.000000
 0
LINE
 8
0
 6
CONTINUOUS
 62
7
 10
-49.498657
 20
-124.999991
 30
0.000000
 11
-49.498657
 21
-125.499990
 31
0.000000
 0
LINE
 8
0
 6
CONTINUOUS
 62
7
 10
-48.498657
 20
-124.999991
 30
0.000000
 11
-48.498657
 21
-125.499990
 31
0.000000
 0
LINE
 8
0
 6
CONTINUOUS
 62
7
 10
-48.998657
 20
-105.080499
 30
0.000000
 11
-48.998657
 21
-106.893115
 31
0.000000
 0
LINE
 8
0
 6
CONTINUOUS
 62
7
 10
-46.998657
 20
-105.080499
 30
0.000000
 11
-46.998657
 21
-106.893115
 31
0.000000
 0
LINE
 8
0
 6
CONTINUOUS
 62
7
 10
-48.981630
 20
-106.815459
 30
0.000000
 11
-48.998657
 21
-106.893115
 31
0.000000
 0
LINE
 8
0
 6
CONTINUOUS
 62
7
 10
-46.998657
 20
-106.893115
 30
0.000000
 11
-47.066185
 21
-106.740448
 31
0.000000
 0
LINE
 8
0
 6
CONTINUOUS
 62
7
 10
-48.848874
 20
-106.670636
 30
0.000000
 11
-48.981630
 21
-106.815459
 31
0.000000
 0
LINE
 8
0
 6
CONTINUOUS
 62
7
 10
-47.066185
 20
-106.740448
 30
0.000000
 11
-47.259648
 21
-106.608399
 31
0.000000
 0
LINE
 8
0
 6
CONTINUOUS
 62
7
 10
-48.601292
 20
-106.555859
 30
0.000000
 11
-48.848874
 21
-106.670636
 31
0.000000
 0
LINE
 8
0
 6
CONTINUOUS
 62
7
 10
-47.259648
 20
-106.608399
 30
0.000000
 11
-47.552919
 21
-106.514803
 31
0.000000
 0
LINE
 8
0
 6
CONTINUOUS
 62
7
 10
-47.906389
 20
-106.472300
 30
0.000000
 11
-48.272320
 21
-106.486630
 31
0.000000
 0
LINE
 8
0
 6
CONTINUOUS
 62
7
 10
-47.552919
 20
-106.514803
 30
0.000000
 11
-47.906389
 21
-106.472300
 31
0.000000
 0
LINE
 8
0
 6
CONTINUOUS
 62
7
 10
-48.272320
 20
-106.486630
 30
0.000000
 11
-48.601292
 21
-106.555859
 31
0.000000
 0
LINE
 8
0
 6
CONTINUOUS
 62
7
 10
-48.848874
 20
-107.115595
 30
0.000000
 11
-48.601292
 21
-107.230372
 31
0.000000
 0
LINE
 8
0
 6
CONTINUOUS
 62
7
 10
-47.552919
 20
-107.271427
 30
0.000000
 11
-47.259648
 21
-107.177831
 31
0.000000
 0
LINE
 8
0
 6
CONTINUOUS
 62
7
 10
-47.259648
 20
-107.177831
 30
0.000000
 11
-47.066185
 21
-107.045782
 31
0.000000
 0
LINE
 8
0
 6
CONTINUOUS
 62
7
 10
-48.981630
 20
-106.970771
 30
0.000000
 11
-48.848874
 21
-107.115595
 31
0.000000
 0
LINE
 8
0
 6
CONTINUOUS
 62
7
 10
-47.066185
 20
-107.045782
 30
0.000000
 11
-46.998657
 21
-106.893115
 31
0.000000
 0
LINE
 8
0
 6
CONTINUOUS
 62
7
 10
-48.998657
 20
-106.893115
 30
0.000000
 11
-48.981630
 21
-106.970771
 31
0.000000
 0
LINE
 8
0
 6
CONTINUOUS
 62
7
 10
-48.998657
 20
-105.080499
 30
0.000000
 11
-48.981630
 21
-105.002843
 31
0.000000
 0
LINE
 8
0
 6
CONTINUOUS
 62
7
 10
-48.981630
 20
-105.002843
 30
0.000000
 11
-48.848874
 21
-104.858020
 31
0.000000
 0
LINE
 8
0
 6
CONTINUOUS
 62
7
 10
-47.259648
 20
-104.795783
 30
0.000000
 11
-47.066185
 21
-104.927832
 31
0.000000
 0
LINE
 8
0
 6
CONTINUOUS
 62
7
 10
-48.848874
 20
-104.858020
 30
0.000000
 11
-48.601292
 21
-104.743243
 31
0.000000
 0
LINE
 8
0
 6
CONTINUOUS
 62
7
 10
-48.601292
 20
-104.743243
 30
0.000000
 11
-48.272320
 21
-104.674015
 31
0.000000
 0
LINE
 8
0
 6
CONTINUOUS
 62
7
 10
-48.272320
 20
-104.674015
 30
0.000000
 11
-47.906389
 21
-104.659684
 31
0.000000
 0
LINE
 8
0
 6
CONTINUOUS
 62
7
 10
-47.906389
 20
-104.659684
 30
0.000000
 11
-47.552919
 21
-104.702187
 31
0.000000
 0
LINE
 8
0
 6
CONTINUOUS
 62
7
 10
-47.552919
 20
-104.702187
 30
0.000000
 11
-47.259648
 21
-104.795783
 31
0.000000
 0
LINE
 8
0
 6
CONTINUOUS
 62
7
 10
-47.066185
 20
-104.927832
 30
0.000000
 11
-46.998657
 21
-105.080499
 31
0.000000
 0
LINE
 8
0
 6
CONTINUOUS
 62
7
 10
-48.601292
 20
-107.230372
 30
0.000000
 11
-48.448654
 21
-107.262493
 31
0.000000
 0
LINE
 8
0
 6
CONTINUOUS
 62
7
 10
-47.554609
 20
-107.271631
 30
0.000000
 11
-47.552919
 21
-107.271427
 31
0.000000
 0
LINE
 8
0
 6
CONTINUOUS
 62
7
 10
-47.171084
 20
-103.478311
 30
0.000000
 11
-46.898657
 21
-103.455432
 31
0.000000
 0
LINE
 8
0
 6
CONTINUOUS
 62
7
 10
-47.023678
 20
-104.361797
 30
0.000000
 11
-46.898657
 21
-104.352151
 31
0.000000
 0
LINE
 8
0
 6
CONTINUOUS
 62
7
 10
-47.256835
 20
-104.443660
 30
0.000000
 11
-47.023678
 21
-104.361797
 31
0.000000
 0
LINE
 8
0
 6
CONTINUOUS
 62
7
 10
-48.129469
 20
-104.021910
 30
0.000000
 11
-47.710594
 21
-103.675831
 31
0.000000
 0
LINE
 8
0
 6
CONTINUOUS
 62
7
 10
-48.382117
 20
-104.481758
 30
0.000000
 11
-48.129469
 21
-104.021910
 31
0.000000
 0
LINE
 8
0
 6
CONTINUOUS
 62
7
 10
-47.679144
 20
-103.656694
 30
0.000000
 11
-47.171084
 21
-103.478311
 31
0.000000
 0
LINE
 8
0
 6
CONTINUOUS
 62
7
 10
-47.679144
 20
-103.656694
 30
0.000000
 11
-47.710594
 21
-103.675831
 31
0.000000
 0
LINE
 8
0
 6
CONTINUOUS
 62
7
 10
-47.441618
 20
-104.596329
 30
0.000000
 11
-47.256835
 21
-104.443660
 31
0.000000
 0
LINE
 8
0
 6
CONTINUOUS
 62
7
 10
-45.498657
 20
-104.352151
 30
0.000000
 11
-46.898657
 21
-104.352151
 31
0.000000
 0
LINE
 8
0
 6
CONTINUOUS
 62
7
 10
-45.498657
 20
-103.457985
 30
0.000000
 11
-46.898657
 21
-103.455432
 31
0.000000
 0
LINE
 8
0
 6
CONTINUOUS
 62
7
 10
-48.382117
 20
-104.481758
 30
0.000000
 11
-48.416374
 21
-104.704329
 31
0.000000
 0
LINE
 8
0
 6
CONTINUOUS
 62
7
 10
-47.507706
 20
-104.716617
 30
0.000000
 11
-47.441618
 21
-104.596329
 31
0.000000
 0
LINE
 8
0
 6
CONTINUOUS
 62
7
 10
-43.498657
 20
-102.776466
 30
0.000000
 11
-45.498657
 21
-102.776466
 31
0.000000
 0
LINE
 8
0
 6
CONTINUOUS
 62
7
 10
-43.498657
 20
-103.902299
 30
0.000000
 11
-45.498657
 21
-103.902299
 31
0.000000
 0
LINE
 8
0
 6
CONTINUOUS
 62
7
 10
-45.498657
 20
-105.028132
 30
0.000000
 11
-45.498657
 21
-103.902299
 31
0.000000
 0
LINE
 8
0
 6
CONTINUOUS
 62
7
 10
-45.498657
 20
-103.902299
 30
0.000000
 11
-45.498657
 21
-102.776466
 31
0.000000
 0
LINE
 8
0
 6
CONTINUOUS
 62
7
 10
-45.498657
 20
-105.028132
 30
0.000000
 11
-43.498657
 21
-105.028132
 31
0.000000
 0
LINE
 8
0
 6
CONTINUOUS
 62
7
 10
-39.157765
 20
-105.202299
 30
0.000000
 11
-39.035552
 21
-105.202299
 31
0.000000
 0
LINE
 8
0
 6
CONTINUOUS
 62
7
 10
-39.246737
 20
-105.202299
 30
0.000000
 11
-39.231479
 21
-105.202299
 31
0.000000
 0
LINE
 8
0
 6
CONTINUOUS
 62
7
 10
-39.246737
 20
-105.202299
 30
0.000000
 11
-39.248657
 21
-105.002299
 31
0.000000
 0
LINE
 8
0
 6
CONTINUOUS
 62
7
 10
-38.350577
 20
-105.202299
 30
0.000000
 11
-38.350577
 21
-105.002299
 31
0.000000
 0
LINE
 8
0
 6
CONTINUOUS
 62
7
 10
-38.439549
 20
-105.202299
 30
0.000000
 11
-38.365836
 21
-105.202299
 31
0.000000
 0
LINE
 8
0
 6
CONTINUOUS
 62
7
 10
-38.715970
 20
-105.202299
 30
0.000000
 11
-38.561763
 21
-105.202299
 31
0.000000
 0
LINE
 8
0
 6
CONTINUOUS
 62
7
 10
-38.881344
 20
-105.202299
 30
0.000000
 11
-38.715970
 21
-105.202299
 31
0.000000
 0
LINE
 8
0
 6
CONTINUOUS
 62
7
 10
-39.231479
 20
-105.202299
 30
0.000000
 11
-39.157765
 21
-105.202299
 31
0.000000
 0
LINE
 8
0
 6
CONTINUOUS
 62
7
 10
-39.035552
 20
-105.202299
 30
0.000000
 11
-38.881344
 21
-105.202299
 31
0.000000
 0
LINE
 8
0
 6
CONTINUOUS
 62
7
 10
-38.561763
 20
-105.202299
 30
0.000000
 11
-38.439549
 21
-105.202299
 31
0.000000
 0
LINE
 8
0
 6
CONTINUOUS
 62
7
 10
-38.365836
 20
-105.202299
 30
0.000000
 11
-38.350577
 21
-105.202299
 31
0.000000
 0
LINE
 8
0
 6
CONTINUOUS
 62
7
 10
-38.415197
 20
-104.580219
 30
0.000000
 11
-38.350577
 21
-105.002299
 31
0.000000
 0
LINE
 8
0
 6
CONTINUOUS
 62
7
 10
-39.273470
 20
-104.824418
 30
0.000000
 11
-39.248657
 21
-105.002299
 31
0.000000
 0
LINE
 8
0
 6
CONTINUOUS
 62
7
 10
-39.779220
 20
-104.363367
 30
0.000000
 11
-39.898657
 21
-104.352299
 31
0.000000
 0
LINE
 8
0
 6
CONTINUOUS
 62
7
 10
-39.615253
 20
-103.486223
 30
0.000000
 11
-39.898657
 21
-103.454219
 31
0.000000
 0
LINE
 8
0
 6
CONTINUOUS
 62
7
 10
-39.273470
 20
-104.824418
 30
0.000000
 11
-39.379946
 21
-104.610587
 31
0.000000
 0
LINE
 8
0
 6
CONTINUOUS
 62
7
 10
-39.556476
 20
-104.449658
 30
0.000000
 11
-39.779220
 21
-104.363367
 31
0.000000
 0
LINE
 8
0
 6
CONTINUOUS
 62
7
 10
-39.379946
 20
-104.610587
 30
0.000000
 11
-39.556476
 21
-104.449658
 31
0.000000
 0
LINE
 8
0
 6
CONTINUOUS
 62
7
 10
-38.415197
 20
-104.580219
 30
0.000000
 11
-38.667845
 21
-104.072833
 31
0.000000
 0
LINE
 8
0
 6
CONTINUOUS
 62
7
 10
-39.086721
 20
-103.690977
 30
0.000000
 11
-38.667845
 21
-104.072833
 31
0.000000
 0
LINE
 8
0
 6
CONTINUOUS
 62
7
 10
-39.615253
 20
-103.486223
 30
0.000000
 11
-39.086721
 21
-103.690977
 31
0.000000
 0
LINE
 8
0
 6
CONTINUOUS
 62
7
 10
-41.298657
 20
-103.454219
 30
0.000000
 11
-39.898657
 21
-103.454219
 31
0.000000
 0
LINE
 8
0
 6
CONTINUOUS
 62
7
 10
-41.298657
 20
-104.350380
 30
0.000000
 11
-39.898657
 21
-104.352299
 31
0.000000
 0
LINE
 8
0
 6
CONTINUOUS
 62
7
 10
-49.998657
 20
-129.999990
 30
0.000000
 11
-49.981630
 21
-129.999990
 31
0.000000
 0
LINE
 8
0
 6
CONTINUOUS
 62
7
 10
-49.981630
 20
-129.999990
 30
0.000000
 11
-49.848874
 21
-129.999990
 31
0.000000
 0
LINE
 8
0
 6
CONTINUOUS
 62
7
 10
-49.848874
 20
-129.999990
 30
0.000000
 11
-49.601292
 21
-129.999990
 31
0.000000
 0
LINE
 8
0
 6
CONTINUOUS
 62
7
 10
-49.601292
 20
-129.999990
 30
0.000000
 11
-49.272320
 21
-129.999990
 31
0.000000
 0
LINE
 8
0
 6
CONTINUOUS
 62
7
 10
-49.272320
 20
-129.999990
 30
0.000000
 11
-48.906389
 21
-129.999990
 31
0.000000
 0
LINE
 8
0
 6
CONTINUOUS
 62
7
 10
-48.906389
 20
-129.999990
 30
0.000000
 11
-48.552919
 21
-129.999990
 31
0.000000
 0
LINE
 8
0
 6
CONTINUOUS
 62
7
 10
-48.552919
 20
-129.999990
 30
0.000000
 11
-48.259648
 21
-129.999990
 31
0.000000
 0
LINE
 8
0
 6
CONTINUOUS
 62
7
 10
-48.259648
 20
-129.999990
 30
0.000000
 11
-48.066185
 21
-129.999990
 31
0.000000
 0
LINE
 8
0
 6
CONTINUOUS
 62
7
 10
-48.066185
 20
-129.999990
 30
0.000000
 11
-47.998657
 21
-129.999990
 31
0.000000
 0
LINE
 8
0
 6
CONTINUOUS
 62
7
 10
-49.998657
 20
-129.999990
 30
0.000000
 11
-49.998657
 21
-128.999990
 31
0.000000
 0
LINE
 8
0
 6
CONTINUOUS
 62
7
 10
-47.998657
 20
-129.999990
 30
0.000000
 11
-47.998657
 21
-128.999990
 31
0.000000
 0
LINE
 8
0
 6
CONTINUOUS
 62
7
 10
-30.848657
 20
-139.502298
 30
0.000000
 11
-30.848657
 21
-141.502298
 31
0.000000
 0
LINE
 8
0
 6
CONTINUOUS
 62
7
 10
-26.848657
 20
-139.502298
 30
0.000000
 11
-26.848657
 21
-141.502298
 31
0.000000
 0
LINE
 8
0
 6
CONTINUOUS
 62
7
 10
-30.549091
 20
-141.502298
 30
0.000000
 11
-30.814603
 21
-141.502298
 31
0.000000
 0
LINE
 8
0
 6
CONTINUOUS
 62
7
 10
-27.957180
 20
-141.502298
 30
0.000000
 11
-28.664120
 21
-141.502298
 31
0.000000
 0
LINE
 8
0
 6
CONTINUOUS
 62
7
 10
-28.664120
 20
-141.502298
 30
0.000000
 11
-29.395983
 21
-141.502298
 31
0.000000
 0
LINE
 8
0
 6
CONTINUOUS
 62
7
 10
-27.370639
 20
-141.502298
 30
0.000000
 11
-27.957180
 21
-141.502298
 31
0.000000
 0
LINE
 8
0
 6
CONTINUOUS
 62
7
 10
-30.814603
 20
-141.502298
 30
0.000000
 11
-30.848657
 21
-141.502298
 31
0.000000
 0
LINE
 8
0
 6
CONTINUOUS
 62
7
 10
-26.848657
 20
-141.502298
 30
0.000000
 11
-26.983712
 21
-141.502298
 31
0.000000
 0
LINE
 8
0
 6
CONTINUOUS
 62
7
 10
-26.983712
 20
-141.502298
 30
0.000000
 11
-27.370639
 21
-141.502298
 31
0.000000
 0
LINE
 8
0
 6
CONTINUOUS
 62
7
 10
-29.395983
 20
-141.502298
 30
0.000000
 11
-30.053926
 21
-141.502298
 31
0.000000
 0
LINE
 8
0
 6
CONTINUOUS
 62
7
 10
-30.053926
 20
-141.502298
 30
0.000000
 11
-30.549091
 21
-141.502298
 31
0.000000
 0
LINE
 8
0
 6
CONTINUOUS
 62
7
 10
-30.348657
 20
-141.502298
 30
0.000000
 11
-30.348657
 21
-144.002297
 31
0.000000
 0
LINE
 8
0
 6
CONTINUOUS
 62
7
 10
-27.348657
 20
-141.502298
 30
0.000000
 11
-27.348657
 21
-144.002297
 31
0.000000
 0
ENDSEC
 0
EOF
