 0
SECTION
 2
HEADER
 0
ENDSEC
 0
SECTION
 2
TABLES
 0
TABLE
 2
LTYPE
 70
1
 0
ENDTAB
 0
TABLE
 2
LAYER
 70
1
 0
LAYER
 2
0
 70
0
 62
7
 6
CONTINUOUS
 0
ENDTAB
 0
TABLE
 2
STYLE
 70
1
 0
STYLE
 2
STANDARD
 70
0
 40
0.500000
 41
1.000000
 50
30.000000
 71
0
 42
0.500000
 3
txt
 4

 0
ENDTAB
 0
ENDSEC
 0
SECTION
 2
ENTITIES
 0
LINE
 8
0
 6
CONTINUOUS
 62
7
 10
-59.287900
 20
-106.902310
 30
0.000000
 11
-54.287900
 21
-106.902310
 31
0.000000
 0
LINE
 8
0
 6
CONTINUOUS
 62
7
 10
-59.287900
 20
-100.825371
 30
0.000000
 11
-54.287900
 21
-100.825371
 31
0.000000
 0
LINE
 8
0
 6
CONTINUOUS
 62
7
 10
-55.087900
 20
-98.800003
 30
0.000000
 11
-55.152796
 21
-98.800003
 31
0.000000
 0
LINE
 8
0
 6
CONTINUOUS
 62
7
 10
-55.152796
 20
-98.800003
 30
0.000000
 11
-55.431270
 21
-98.800003
 31
0.000000
 0
LINE
 8
0
 6
CONTINUOUS
 62
7
 10
-55.431270
 20
-98.800003
 30
0.000000
 11
-55.892965
 21
-98.800003
 31
0.000000
 0
LINE
 8
0
 6
CONTINUOUS
 62
7
 10
-55.892965
 20
-98.800003
 30
0.000000
 11
-56.475526
 21
-98.800003
 31
0.000000
 0
LINE
 8
0
 6
CONTINUOUS
 62
7
 10
-59.287900
 20
-98.800003
 30
0.000000
 11
-54.287900
 21
-98.800003
 31
0.000000
 0
LINE
 8
0
 6
CONTINUOUS
 62
7
 10
-56.475526
 20
-98.800003
 30
0.000000
 11
-57.100274
 21
-98.800003
 31
0.000000
 0
LINE
 8
0
 6
CONTINUOUS
 62
7
 10
-57.100274
 20
-98.800003
 30
0.000000
 11
-57.682834
 21
-98.800003
 31
0.000000
 0
LINE
 8
0
 6
CONTINUOUS
 62
7
 10
-57.682834
 20
-98.800003
 30
0.000000
 11
-58.144529
 21
-98.800003
 31
0.000000
 0
LINE
 8
0
 6
CONTINUOUS
 62
7
 10
-58.144529
 20
-98.800003
 30
0.000000
 11
-58.423003
 21
-98.800003
 31
0.000000
 0
LINE
 8
0
 6
CONTINUOUS
 62
7
 10
-58.423003
 20
-98.800003
 30
0.000000
 11
-58.487900
 21
-98.800003
 31
0.000000
 0
LINE
 8
0
 6
CONTINUOUS
 62
7
 10
-59.287900
 20
-106.902310
 30
0.000000
 11
-59.287900
 21
-100.825371
 31
0.000000
 0
LINE
 8
0
 6
CONTINUOUS
 62
7
 10
-59.287900
 20
-100.825371
 30
0.000000
 11
-59.287900
 21
-98.800003
 31
0.000000
 0
LINE
 8
0
 6
CONTINUOUS
 62
7
 10
-54.287900
 20
-100.825371
 30
0.000000
 11
-54.287900
 21
-106.902310
 31
0.000000
 0
LINE
 8
0
 6
CONTINUOUS
 62
7
 10
-54.287900
 20
-98.800003
 30
0.000000
 11
-54.287900
 21
-100.825371
 31
0.000000
 0
LINE
 8
0
 6
CONTINUOUS
 62
7
 10
-59.287900
 20
-98.800003
 30
0.000000
 11
-59.287900
 21
-99.000003
 31
0.000000
 0
LINE
 8
0
 6
CONTINUOUS
 62
7
 10
-55.294298
 20
-147.153806
 30
0.000000
 11
-55.294298
 21
-146.900002
 31
0.000000
 0
LINE
 8
0
 6
CONTINUOUS
 62
7
 10
-55.345161
 20
-148.910497
 30
0.000000
 11
-55.294298
 21
-148.638405
 31
0.000000
 0
LINE
 8
0
 6
CONTINUOUS
 62
7
 10
-55.294298
 20
-148.273455
 30
0.000000
 11
-55.294298
 21
-148.638405
 31
0.000000
 0
LINE
 8
0
 6
CONTINUOUS
 62
7
 10
-58.281501
 20
-148.638405
 30
0.000000
 11
-58.230638
 21
-148.910497
 31
0.000000
 0
LINE
 8
0
 6
CONTINUOUS
 62
7
 10
-58.230638
 20
-148.910497
 30
0.000000
 11
-58.130645
 21
-149.168610
 31
0.000000
 0
LINE
 8
0
 6
CONTINUOUS
 62
7
 10
-58.130645
 20
-149.168610
 30
0.000000
 11
-57.984926
 21
-149.403954
 31
0.000000
 0
LINE
 8
0
 6
CONTINUOUS
 62
7
 10
-57.984926
 20
-149.403954
 30
0.000000
 11
-57.798443
 21
-149.608516
 31
0.000000
 0
LINE
 8
0
 6
CONTINUOUS
 62
7
 10
-57.798443
 20
-149.608516
 30
0.000000
 11
-57.577548
 21
-149.775328
 31
0.000000
 0
LINE
 8
0
 6
CONTINUOUS
 62
7
 10
-57.577548
 20
-149.775328
 30
0.000000
 11
-57.329762
 21
-149.898711
 31
0.000000
 0
LINE
 8
0
 6
CONTINUOUS
 62
7
 10
-57.329762
 20
-149.898711
 30
0.000000
 11
-57.063524
 21
-149.974462
 31
0.000000
 0
LINE
 8
0
 6
CONTINUOUS
 62
7
 10
-57.063524
 20
-149.974462
 30
0.000000
 11
-56.787900
 21
-150.000002
 31
0.000000
 0
LINE
 8
0
 6
CONTINUOUS
 62
7
 10
-56.787900
 20
-150.000002
 30
0.000000
 11
-56.512275
 21
-149.974462
 31
0.000000
 0
LINE
 8
0
 6
CONTINUOUS
 62
7
 10
-56.512275
 20
-149.974462
 30
0.000000
 11
-56.246037
 21
-149.898711
 31
0.000000
 0
LINE
 8
0
 6
CONTINUOUS
 62
7
 10
-56.246037
 20
-149.898711
 30
0.000000
 11
-55.998251
 21
-149.775328
 31
0.000000
 0
LINE
 8
0
 6
CONTINUOUS
 62
7
 10
-55.998251
 20
-149.775328
 30
0.000000
 11
-55.777356
 21
-149.608516
 31
0.000000
 0
LINE
 8
0
 6
CONTINUOUS
 62
7
 10
-55.777356
 20
-149.608516
 30
0.000000
 11
-55.590874
 21
-149.403954
 31
0.000000
 0
LINE
 8
0
 6
CONTINUOUS
 62
7
 10
-55.590874
 20
-149.403954
 30
0.000000
 11
-55.445155
 21
-149.168610
 31
0.000000
 0
LINE
 8
0
 6
CONTINUOUS
 62
7
 10
-55.445155
 20
-149.168610
 30
0.000000
 11
-55.345161
 21
-148.910497
 31
0.000000
 0
LINE
 8
0
 6
CONTINUOUS
 62
7
 10
-58.281501
 20
-147.153806
 30
0.000000
 11
-58.281501
 21
-146.900002
 31
0.000000
 0
LINE
 8
0
 6
CONTINUOUS
 62
7
 10
-55.294298
 20
-147.630801
 30
0.000000
 11
-55.294298
 21
-147.153806
 31
0.000000
 0
LINE
 8
0
 6
CONTINUOUS
 62
7
 10
-55.294298
 20
-148.273455
 30
0.000000
 11
-55.294298
 21
-148.019651
 31
0.000000
 0
LINE
 8
0
 6
CONTINUOUS
 62
7
 10
-55.294298
 20
-148.019651
 30
0.000000
 11
-55.294298
 21
-147.630801
 31
0.000000
 0
LINE
 8
0
 6
CONTINUOUS
 62
7
 10
-58.281501
 20
-148.273455
 30
0.000000
 11
-58.281501
 21
-148.638405
 31
0.000000
 0
LINE
 8
0
 6
CONTINUOUS
 62
7
 10
-58.281501
 20
-148.273455
 30
0.000000
 11
-58.281501
 21
-148.019651
 31
0.000000
 0
LINE
 8
0
 6
CONTINUOUS
 62
7
 10
-58.281501
 20
-147.153806
 30
0.000000
 11
-58.281501
 21
-147.630801
 31
0.000000
 0
LINE
 8
0
 6
CONTINUOUS
 62
7
 10
-58.281501
 20
-148.019651
 30
0.000000
 11
-58.281501
 21
-147.630801
 31
0.000000
 0
LINE
 8
0
 6
CONTINUOUS
 62
7
 10
-58.281501
 20
-146.085082
 30
0.000000
 11
-58.281501
 21
-146.900002
 31
0.000000
 0
LINE
 8
0
 6
CONTINUOUS
 62
7
 10
-55.294298
 20
-146.085082
 30
0.000000
 11
-55.294298
 21
-146.900002
 31
0.000000
 0
LINE
 8
0
 6
CONTINUOUS
 62
7
 10
-55.735035
 20
-139.502310
 30
0.000000
 11
-56.420401
 21
-139.502310
 31
0.000000
 0
LINE
 8
0
 6
CONTINUOUS
 62
7
 10
-55.191865
 20
-139.502310
 30
0.000000
 11
-55.735035
 21
-139.502310
 31
0.000000
 0
LINE
 8
0
 6
CONTINUOUS
 62
7
 10
-57.840764
 20
-139.502310
 30
0.000000
 11
-58.383934
 21
-139.502310
 31
0.000000
 0
LINE
 8
0
 6
CONTINUOUS
 62
7
 10
-58.383934
 20
-139.502310
 30
0.000000
 11
-58.711551
 21
-139.502310
 31
0.000000
 0
LINE
 8
0
 6
CONTINUOUS
 62
7
 10
-58.779368
 20
-139.502310
 30
0.000000
 11
-58.779368
 21
-141.502310
 31
0.000000
 0
LINE
 8
0
 6
CONTINUOUS
 62
7
 10
-58.711551
 20
-139.502310
 30
0.000000
 11
-58.779368
 21
-139.502310
 31
0.000000
 0
LINE
 8
0
 6
CONTINUOUS
 62
7
 10
-54.796431
 20
-139.502310
 30
0.000000
 11
-54.796431
 21
-141.502310
 31
0.000000
 0
LINE
 8
0
 6
CONTINUOUS
 62
7
 10
-54.796431
 20
-139.502310
 30
0.000000
 11
-54.864248
 21
-139.502310
 31
0.000000
 0
LINE
 8
0
 6
CONTINUOUS
 62
7
 10
-54.864248
 20
-139.502310
 30
0.000000
 11
-55.191865
 21
-139.502310
 31
0.000000
 0
LINE
 8
0
 6
CONTINUOUS
 62
7
 10
-55.735035
 20
-141.502310
 30
0.000000
 11
-56.420401
 21
-141.502310
 31
0.000000
 0
LINE
 8
0
 6
CONTINUOUS
 62
7
 10
-54.796431
 20
-141.502310
 30
0.000000
 11
-54.864248
 21
-141.502310
 31
0.000000
 0
LINE
 8
0
 6
CONTINUOUS
 62
7
 10
-58.711551
 20
-141.502310
 30
0.000000
 11
-58.779368
 21
-141.502310
 31
0.000000
 0
LINE
 8
0
 6
CONTINUOUS
 62
7
 10
-58.383934
 20
-141.502310
 30
0.000000
 11
-58.711551
 21
-141.502310
 31
0.000000
 0
LINE
 8
0
 6
CONTINUOUS
 62
7
 10
-56.420401
 20
-141.502310
 30
0.000000
 11
-56.787900
 21
-141.502310
 31
0.000000
 0
LINE
 8
0
 6
CONTINUOUS
 62
7
 10
-56.787900
 20
-141.502310
 30
0.000000
 11
-57.155399
 21
-141.502310
 31
0.000000
 0
LINE
 8
0
 6
CONTINUOUS
 62
7
 10
-57.155399
 20
-141.502310
 30
0.000000
 11
-57.840764
 21
-141.502310
 31
0.000000
 0
LINE
 8
0
 6
CONTINUOUS
 62
7
 10
-57.840764
 20
-141.502310
 30
0.000000
 11
-58.383934
 21
-141.502310
 31
0.000000
 0
LINE
 8
0
 6
CONTINUOUS
 62
7
 10
-54.864248
 20
-141.502310
 30
0.000000
 11
-55.191865
 21
-141.502310
 31
0.000000
 0
LINE
 8
0
 6
CONTINUOUS
 62
7
 10
-55.191865
 20
-141.502310
 30
0.000000
 11
-55.735035
 21
-141.502310
 31
0.000000
 0
LINE
 8
0
 6
CONTINUOUS
 62
7
 10
-58.281501
 20
-141.502310
 30
0.000000
 11
-58.281501
 21
-144.002310
 31
0.000000
 0
LINE
 8
0
 6
CONTINUOUS
 62
7
 10
-55.294298
 20
-141.502310
 30
0.000000
 11
-55.294298
 21
-144.002310
 31
0.000000
 0
LINE
 8
0
 6
CONTINUOUS
 62
7
 10
-59.287900
 20
-139.502310
 30
0.000000
 11
-54.287900
 21
-139.502310
 31
0.000000
 0
LINE
 8
0
 6
CONTINUOUS
 62
7
 10
-59.287900
 20
-139.502310
 30
0.000000
 11
-59.287900
 21
-111.302310
 31
0.000000
 0
LINE
 8
0
 6
CONTINUOUS
 62
7
 10
-54.287900
 20
-111.302310
 30
0.000000
 11
-54.287900
 21
-139.502310
 31
0.000000
 0
LINE
 8
0
 6
CONTINUOUS
 62
7
 10
-59.287900
 20
-111.302310
 30
0.000000
 11
-59.287900
 21
-106.902310
 31
0.000000
 0
LINE
 8
0
 6
CONTINUOUS
 62
7
 10
-54.287900
 20
-106.902310
 30
0.000000
 11
-54.287900
 21
-111.302310
 31
0.000000
 0
LINE
 8
0
 6
CONTINUOUS
 62
7
 10
-57.998694
 20
-146.085082
 30
0.000000
 11
-57.210524
 21
-146.085082
 31
0.000000
 0
LINE
 8
0
 6
CONTINUOUS
 62
7
 10
-58.623339
 20
-146.085082
 30
0.000000
 11
-57.998694
 21
-146.085082
 31
0.000000
 0
LINE
 8
0
 6
CONTINUOUS
 62
7
 10
-57.210524
 20
-146.085082
 30
0.000000
 11
-56.787900
 21
-146.085082
 31
0.000000
 0
LINE
 8
0
 6
CONTINUOUS
 62
7
 10
-56.787900
 20
-146.085082
 30
0.000000
 11
-56.365276
 21
-146.085082
 31
0.000000
 0
LINE
 8
0
 6
CONTINUOUS
 62
7
 10
-56.365276
 20
-146.085082
 30
0.000000
 11
-55.577106
 21
-146.085082
 31
0.000000
 0
LINE
 8
0
 6
CONTINUOUS
 62
7
 10
-55.577106
 20
-146.085082
 30
0.000000
 11
-54.952460
 21
-146.085082
 31
0.000000
 0
LINE
 8
0
 6
CONTINUOUS
 62
7
 10
-54.952460
 20
-146.085082
 30
0.000000
 11
-54.575701
 21
-146.085082
 31
0.000000
 0
LINE
 8
0
 6
CONTINUOUS
 62
7
 10
-54.497711
 20
-146.085082
 30
0.000000
 11
-54.497711
 21
-144.002310
 31
0.000000
 0
LINE
 8
0
 6
CONTINUOUS
 62
7
 10
-54.575701
 20
-146.085082
 30
0.000000
 11
-54.497711
 21
-146.085082
 31
0.000000
 0
LINE
 8
0
 6
CONTINUOUS
 62
7
 10
-59.078088
 20
-146.085082
 30
0.000000
 11
-59.078088
 21
-144.002310
 31
0.000000
 0
LINE
 8
0
 6
CONTINUOUS
 62
7
 10
-59.078088
 20
-146.085082
 30
0.000000
 11
-59.000099
 21
-146.085082
 31
0.000000
 0
LINE
 8
0
 6
CONTINUOUS
 62
7
 10
-59.000099
 20
-146.085082
 30
0.000000
 11
-58.623339
 21
-146.085082
 31
0.000000
 0
LINE
 8
0
 6
CONTINUOUS
 62
7
 10
-57.210524
 20
-144.002310
 30
0.000000
 11
-56.787900
 21
-144.002310
 31
0.000000
 0
LINE
 8
0
 6
CONTINUOUS
 62
7
 10
-57.998694
 20
-144.002310
 30
0.000000
 11
-57.210524
 21
-144.002310
 31
0.000000
 0
LINE
 8
0
 6
CONTINUOUS
 62
7
 10
-58.623339
 20
-144.002310
 30
0.000000
 11
-57.998694
 21
-144.002310
 31
0.000000
 0
LINE
 8
0
 6
CONTINUOUS
 62
7
 10
-59.078088
 20
-144.002310
 30
0.000000
 11
-59.000099
 21
-144.002310
 31
0.000000
 0
LINE
 8
0
 6
CONTINUOUS
 62
7
 10
-58.846775
 20
-144.002310
 30
0.000000
 11
-59.078088
 21
-144.002310
 31
0.000000
 0
LINE
 8
0
 6
CONTINUOUS
 62
7
 10
-59.000099
 20
-144.002310
 30
0.000000
 11
-58.623339
 21
-144.002310
 31
0.000000
 0
LINE
 8
0
 6
CONTINUOUS
 62
7
 10
-54.952460
 20
-144.002310
 30
0.000000
 11
-54.575701
 21
-144.002310
 31
0.000000
 0
LINE
 8
0
 6
CONTINUOUS
 62
7
 10
-54.497711
 20
-144.002310
 30
0.000000
 11
-54.729024
 21
-144.002310
 31
0.000000
 0
LINE
 8
0
 6
CONTINUOUS
 62
7
 10
-54.575701
 20
-144.002310
 30
0.000000
 11
-54.497711
 21
-144.002310
 31
0.000000
 0
LINE
 8
0
 6
CONTINUOUS
 62
7
 10
-55.577106
 20
-144.002310
 30
0.000000
 11
-54.952460
 21
-144.002310
 31
0.000000
 0
LINE
 8
0
 6
CONTINUOUS
 62
7
 10
-56.365276
 20
-144.002310
 30
0.000000
 11
-55.577106
 21
-144.002310
 31
0.000000
 0
LINE
 8
0
 6
CONTINUOUS
 62
7
 10
-56.787900
 20
-144.002310
 30
0.000000
 11
-56.365276
 21
-144.002310
 31
0.000000
 0
LINE
 8
0
 6
CONTINUOUS
 62
7
 10
-58.087900
 20
-103.902311
 30
0.000000
 11
-57.437900
 21
-105.028144
 31
0.000000
 0
LINE
 8
0
 6
CONTINUOUS
 62
7
 10
-57.437900
 20
-105.028144
 30
0.000000
 11
-56.137900
 21
-105.028144
 31
0.000000
 0
LINE
 8
0
 6
CONTINUOUS
 62
7
 10
-56.137900
 20
-105.028144
 30
0.000000
 11
-55.487900
 21
-103.902311
 31
0.000000
 0
LINE
 8
0
 6
CONTINUOUS
 62
7
 10
-56.137900
 20
-102.776477
 30
0.000000
 11
-57.437900
 21
-102.776477
 31
0.000000
 0
LINE
 8
0
 6
CONTINUOUS
 62
7
 10
-55.487900
 20
-103.902311
 30
0.000000
 11
-56.137900
 21
-102.776477
 31
0.000000
 0
LINE
 8
0
 6
CONTINUOUS
 62
7
 10
-57.437900
 20
-102.776477
 30
0.000000
 11
-58.087900
 21
-103.902311
 31
0.000000
 0
ENDSEC
 0
EOF
