 0
SECTION
 2
HEADER
 0
ENDSEC
 0
SECTION
 2
TABLES
 0
TABLE
 2
LTYPE
 70
1
 0
ENDTAB
 0
TABLE
 2
LAYER
 70
1
 0
LAYER
 2
0
 70
0
 62
7
 6
CONTINUOUS
 0
ENDTAB
 0
TABLE
 2
STYLE
 70
1
 0
STYLE
 2
STANDARD
 70
0
 40
0.500000
 41
1.000000
 50
30.000000
 71
0
 42
0.500000
 3
txt
 4

 0
ENDTAB
 0
ENDSEC
 0
SECTION
 2
ENTITIES
 0
LINE
 8
0
 6
CONTINUOUS
 62
7
 10
-75.437895
 20
28.892409
 30
0.000000
 11
-75.437895
 21
23.892409
 31
0.000000
 0
LINE
 8
0
 6
CONTINUOUS
 62
7
 10
-55.137896
 20
28.092409
 30
0.000000
 11
-54.672669
 21
28.027513
 31
0.000000
 0
LINE
 8
0
 6
CONTINUOUS
 62
7
 10
-54.672669
 20
28.027513
 30
0.000000
 11
-54.113417
 21
27.749038
 31
0.000000
 0
LINE
 8
0
 6
CONTINUOUS
 62
7
 10
-54.113417
 20
27.749038
 30
0.000000
 11
-53.692527
 21
27.287344
 31
0.000000
 0
LINE
 8
0
 6
CONTINUOUS
 62
7
 10
-53.692527
 20
27.287344
 30
0.000000
 11
-53.466841
 21
26.704783
 31
0.000000
 0
LINE
 8
0
 6
CONTINUOUS
 62
7
 10
-53.466841
 20
26.704783
 30
0.000000
 11
-53.466841
 21
26.080035
 31
0.000000
 0
LINE
 8
0
 6
CONTINUOUS
 62
7
 10
-53.466841
 20
26.080035
 30
0.000000
 11
-53.692527
 21
25.497474
 31
0.000000
 0
LINE
 8
0
 6
CONTINUOUS
 62
7
 10
-53.692527
 20
25.497474
 30
0.000000
 11
-54.113417
 21
25.035780
 31
0.000000
 0
LINE
 8
0
 6
CONTINUOUS
 62
7
 10
-54.113417
 20
25.035780
 30
0.000000
 11
-54.672669
 21
24.757305
 31
0.000000
 0
LINE
 8
0
 6
CONTINUOUS
 62
7
 10
-54.672669
 20
24.757305
 30
0.000000
 11
-55.137896
 21
24.692409
 31
0.000000
 0
LINE
 8
0
 6
CONTINUOUS
 62
7
 10
-55.137896
 20
24.692409
 30
0.000000
 11
-58.437896
 21
24.692409
 31
0.000000
 0
LINE
 8
0
 6
CONTINUOUS
 62
7
 10
-58.437896
 20
24.692409
 30
0.000000
 11
-58.903123
 21
24.757305
 31
0.000000
 0
LINE
 8
0
 6
CONTINUOUS
 62
7
 10
-58.903123
 20
24.757305
 30
0.000000
 11
-59.462374
 21
25.035780
 31
0.000000
 0
LINE
 8
0
 6
CONTINUOUS
 62
7
 10
-59.462374
 20
25.035780
 30
0.000000
 11
-59.883265
 21
25.497474
 31
0.000000
 0
LINE
 8
0
 6
CONTINUOUS
 62
7
 10
-59.883265
 20
25.497474
 30
0.000000
 11
-60.108950
 21
26.080035
 31
0.000000
 0
LINE
 8
0
 6
CONTINUOUS
 62
7
 10
-60.108950
 20
26.080035
 30
0.000000
 11
-60.108950
 21
26.704783
 31
0.000000
 0
LINE
 8
0
 6
CONTINUOUS
 62
7
 10
-60.108950
 20
26.704783
 30
0.000000
 11
-59.883265
 21
27.287344
 31
0.000000
 0
LINE
 8
0
 6
CONTINUOUS
 62
7
 10
-59.883265
 20
27.287344
 30
0.000000
 11
-59.462374
 21
27.749038
 31
0.000000
 0
LINE
 8
0
 6
CONTINUOUS
 62
7
 10
-59.462374
 20
27.749038
 30
0.000000
 11
-58.903123
 21
28.027513
 31
0.000000
 0
LINE
 8
0
 6
CONTINUOUS
 62
7
 10
-58.903123
 20
28.027513
 30
0.000000
 11
-58.437896
 21
28.092409
 31
0.000000
 0
LINE
 8
0
 6
CONTINUOUS
 62
7
 10
-58.437896
 20
28.092409
 30
0.000000
 11
-55.137896
 21
28.092409
 31
0.000000
 0
LINE
 8
0
 6
CONTINUOUS
 62
7
 10
-51.783040
 20
28.892409
 30
0.000000
 11
-51.783040
 21
23.892409
 31
0.000000
 0
LINE
 8
0
 6
CONTINUOUS
 62
7
 10
-50.237896
 20
28.892409
 30
0.000000
 11
-50.237896
 21
23.892409
 31
0.000000
 0
LINE
 8
0
 6
CONTINUOUS
 62
7
 10
-75.437895
 20
28.892409
 30
0.000000
 11
-60.551439
 21
28.892409
 31
0.000000
 0
LINE
 8
0
 6
CONTINUOUS
 62
7
 10
-60.537896
 20
28.892409
 30
0.000000
 11
-75.237895
 21
28.892409
 31
0.000000
 0
LINE
 8
0
 6
CONTINUOUS
 62
7
 10
-51.937896
 20
28.892409
 30
0.000000
 11
-60.537896
 21
28.892409
 31
0.000000
 0
LINE
 8
0
 6
CONTINUOUS
 62
7
 10
-60.551439
 20
28.892409
 30
0.000000
 11
-51.783040
 21
28.892409
 31
0.000000
 0
LINE
 8
0
 6
CONTINUOUS
 62
7
 10
-51.783040
 20
28.892409
 30
0.000000
 11
-50.237896
 21
28.892409
 31
0.000000
 0
LINE
 8
0
 6
CONTINUOUS
 62
7
 10
-60.551439
 20
23.892409
 30
0.000000
 11
-75.437895
 21
23.892409
 31
0.000000
 0
LINE
 8
0
 6
CONTINUOUS
 62
7
 10
-50.237896
 20
23.892409
 30
0.000000
 11
-51.783040
 21
23.892409
 31
0.000000
 0
LINE
 8
0
 6
CONTINUOUS
 62
7
 10
-51.783040
 20
23.892409
 30
0.000000
 11
-60.551439
 21
23.892409
 31
0.000000
 0
LINE
 8
0
 6
CONTINUOUS
 62
7
 10
-75.237895
 20
28.892409
 30
0.000000
 11
-75.037895
 21
28.892409
 31
0.000000
 0
LINE
 8
0
 6
CONTINUOUS
 62
7
 10
-75.037895
 20
28.892409
 30
0.000000
 11
-73.737895
 21
28.892409
 31
0.000000
 0
LINE
 8
0
 6
CONTINUOUS
 62
7
 10
-73.737895
 20
28.892409
 30
0.000000
 11
-75.037895
 21
28.892409
 31
0.000000
 0
LINE
 8
0
 6
CONTINUOUS
 62
7
 10
-75.037895
 20
28.892409
 30
0.000000
 11
-75.237895
 21
28.892409
 31
0.000000
 0
LINE
 8
0
 6
CONTINUOUS
 62
7
 10
-75.237895
 20
28.892409
 30
0.000000
 11
-75.437895
 21
28.892409
 31
0.000000
 0
LINE
 8
0
 6
CONTINUOUS
 62
7
 10
-50.437896
 20
28.892409
 30
0.000000
 11
-51.783040
 21
28.892409
 31
0.000000
 0
LINE
 8
0
 6
CONTINUOUS
 62
7
 10
-51.783040
 20
28.892409
 30
0.000000
 11
-51.937896
 21
28.892409
 31
0.000000
 0
LINE
 8
0
 6
CONTINUOUS
 62
7
 10
-50.237896
 20
28.892409
 30
0.000000
 11
-50.437896
 21
28.892409
 31
0.000000
 0
LINE
 8
0
 6
CONTINUOUS
 62
7
 10
-50.437896
 20
28.892409
 30
0.000000
 11
-50.637896
 21
28.892409
 31
0.000000
 0
LINE
 8
0
 6
CONTINUOUS
 62
7
 10
-50.637896
 20
28.892409
 30
0.000000
 11
-51.783040
 21
28.892409
 31
0.000000
 0
LINE
 8
0
 6
CONTINUOUS
 62
7
 10
-51.783040
 20
28.892409
 30
0.000000
 11
-51.937896
 21
28.892409
 31
0.000000
 0
LINE
 8
0
 6
CONTINUOUS
 62
7
 10
-45.537896
 20
28.892409
 30
0.000000
 11
-45.537896
 21
23.892409
 31
0.000000
 0
LINE
 8
0
 6
CONTINUOUS
 62
7
 10
-73.537895
 20
28.892409
 30
0.000000
 11
-75.037895
 21
28.892409
 31
0.000000
 0
LINE
 8
0
 6
CONTINUOUS
 62
7
 10
-75.037895
 20
28.892409
 30
0.000000
 11
-51.937896
 21
28.892409
 31
0.000000
 0
LINE
 8
0
 6
CONTINUOUS
 62
7
 10
-51.937896
 20
28.892409
 30
0.000000
 11
-51.783039
 21
28.892409
 31
0.000000
 0
LINE
 8
0
 6
CONTINUOUS
 62
7
 10
-51.783039
 20
28.892409
 30
0.000000
 11
-50.637896
 21
28.892409
 31
0.000000
 0
LINE
 8
0
 6
CONTINUOUS
 62
7
 10
-50.637896
 20
28.892409
 30
0.000000
 11
-51.783040
 21
28.892409
 31
0.000000
 0
LINE
 8
0
 6
CONTINUOUS
 62
7
 10
-51.783040
 20
28.892409
 30
0.000000
 11
-51.937896
 21
28.892409
 31
0.000000
 0
LINE
 8
0
 6
CONTINUOUS
 62
7
 10
-51.937896
 20
28.892409
 30
0.000000
 11
-52.137896
 21
28.892409
 31
0.000000
 0
LINE
 8
0
 6
CONTINUOUS
 62
7
 10
-45.537896
 20
28.892409
 30
0.000000
 11
-50.237896
 21
28.892409
 31
0.000000
 0
LINE
 8
0
 6
CONTINUOUS
 62
7
 10
-50.237896
 20
28.892409
 30
0.000000
 11
-50.437896
 21
28.892409
 31
0.000000
 0
LINE
 8
0
 6
CONTINUOUS
 62
7
 10
-50.437896
 20
28.892409
 30
0.000000
 11
-50.637896
 21
28.892409
 31
0.000000
 0
LINE
 8
0
 6
CONTINUOUS
 62
7
 10
-50.637896
 20
28.892409
 30
0.000000
 11
-51.783040
 21
28.892409
 31
0.000000
 0
LINE
 8
0
 6
CONTINUOUS
 62
7
 10
-51.783040
 20
28.892409
 30
0.000000
 11
-51.937896
 21
28.892409
 31
0.000000
 0
LINE
 8
0
 6
CONTINUOUS
 62
7
 10
-51.937896
 20
28.892409
 30
0.000000
 11
-52.137896
 21
28.892409
 31
0.000000
 0
LINE
 8
0
 6
CONTINUOUS
 62
7
 10
-52.137896
 20
28.892409
 30
0.000000
 11
-73.537895
 21
28.892409
 31
0.000000
 0
LINE
 8
0
 6
CONTINUOUS
 62
7
 10
-73.537895
 20
28.892409
 30
0.000000
 11
-73.737895
 21
28.892409
 31
0.000000
 0
LINE
 8
0
 6
CONTINUOUS
 62
7
 10
-73.737895
 20
28.892409
 30
0.000000
 11
-75.037895
 21
28.892409
 31
0.000000
 0
LINE
 8
0
 6
CONTINUOUS
 62
7
 10
-50.637896
 20
28.892409
 30
0.000000
 11
-50.437896
 21
28.892409
 31
0.000000
 0
LINE
 8
0
 6
CONTINUOUS
 62
7
 10
-50.437896
 20
28.892409
 30
0.000000
 11
-50.237896
 21
28.892409
 31
0.000000
 0
LINE
 8
0
 6
CONTINUOUS
 62
7
 10
-50.237896
 20
28.892409
 30
0.000000
 11
-45.537896
 21
28.892409
 31
0.000000
 0
LINE
 8
0
 6
CONTINUOUS
 62
7
 10
-45.537896
 20
23.892409
 30
0.000000
 11
-50.237896
 21
23.892409
 31
0.000000
 0
LINE
 8
0
 6
CONTINUOUS
 62
7
 10
-77.237895
 20
25.742409
 30
0.000000
 11
-77.237895
 21
27.042409
 31
0.000000
 0
LINE
 8
0
 6
CONTINUOUS
 62
7
 10
-77.237895
 20
25.092409
 30
0.000000
 11
-77.237895
 21
25.742409
 31
0.000000
 0
LINE
 8
0
 6
CONTINUOUS
 62
7
 10
-77.237895
 20
27.042409
 30
0.000000
 11
-77.237895
 21
27.692409
 31
0.000000
 0
LINE
 8
0
 6
CONTINUOUS
 62
7
 10
-75.437895
 20
27.692409
 30
0.000000
 11
-77.237895
 21
27.692409
 31
0.000000
 0
LINE
 8
0
 6
CONTINUOUS
 62
7
 10
-75.437895
 20
27.042409
 30
0.000000
 11
-77.237895
 21
27.042409
 31
0.000000
 0
LINE
 8
0
 6
CONTINUOUS
 62
7
 10
-75.437895
 20
25.742409
 30
0.000000
 11
-77.237895
 21
25.742409
 31
0.000000
 0
LINE
 8
0
 6
CONTINUOUS
 62
7
 10
-75.437895
 20
25.092409
 30
0.000000
 11
-77.237895
 21
25.092409
 31
0.000000
 0
ENDSEC
 0
EOF
