 0
SECTION
 2
HEADER
 0
ENDSEC
 0
SECTION
 2
TABLES
 0
TABLE
 2
LTYPE
 70
1
 0
ENDTAB
 0
TABLE
 2
LAYER
 70
1
 0
LAYER
 2
0
 70
0
 62
7
 6
CONTINUOUS
 0
ENDTAB
 0
TABLE
 2
STYLE
 70
1
 0
STYLE
 2
STANDARD
 70
0
 40
0.500000
 41
1.000000
 50
30.000000
 71
0
 42
0.500000
 3
txt
 4

 0
ENDTAB
 0
ENDSEC
 0
SECTION
 2
ENTITIES
 0
LINE
 8
0
 6
CONTINUOUS
 62
7
 10
-53.466843
 20
-98.800003
 30
0.000000
 11
-53.692528
 21
-98.800003
 31
0.000000
 0
LINE
 8
0
 6
CONTINUOUS
 62
7
 10
-53.692528
 20
-98.800003
 30
0.000000
 11
-54.113418
 21
-98.800003
 31
0.000000
 0
LINE
 8
0
 6
CONTINUOUS
 62
7
 10
-54.113418
 20
-98.800003
 30
0.000000
 11
-54.672670
 21
-98.800003
 31
0.000000
 0
LINE
 8
0
 6
CONTINUOUS
 62
7
 10
-54.672670
 20
-98.800003
 30
0.000000
 11
-55.137897
 21
-98.800003
 31
0.000000
 0
LINE
 8
0
 6
CONTINUOUS
 62
7
 10
-55.137897
 20
-98.800003
 30
0.000000
 11
-58.437897
 21
-98.800003
 31
0.000000
 0
LINE
 8
0
 6
CONTINUOUS
 62
7
 10
-58.437897
 20
-98.800003
 30
0.000000
 11
-58.903124
 21
-98.800003
 31
0.000000
 0
LINE
 8
0
 6
CONTINUOUS
 62
7
 10
-58.903124
 20
-98.800003
 30
0.000000
 11
-59.462376
 21
-98.800003
 31
0.000000
 0
LINE
 8
0
 6
CONTINUOUS
 62
7
 10
-59.462376
 20
-98.800003
 30
0.000000
 11
-59.883266
 21
-98.800003
 31
0.000000
 0
LINE
 8
0
 6
CONTINUOUS
 62
7
 10
-59.883266
 20
-98.800003
 30
0.000000
 11
-60.108952
 21
-98.800003
 31
0.000000
 0
LINE
 8
0
 6
CONTINUOUS
 62
7
 10
-75.437898
 20
-100.825371
 30
0.000000
 11
-75.437898
 21
-106.902310
 31
0.000000
 0
LINE
 8
0
 6
CONTINUOUS
 62
7
 10
-75.237898
 20
-106.702310
 30
0.000000
 11
-75.237898
 21
-101.000003
 31
0.000000
 0
LINE
 8
0
 6
CONTINUOUS
 62
7
 10
-60.551440
 20
-98.800003
 30
0.000000
 11
-75.437898
 21
-100.825371
 31
0.000000
 0
LINE
 8
0
 6
CONTINUOUS
 62
7
 10
-75.237898
 20
-101.000003
 30
0.000000
 11
-60.537897
 21
-99.000003
 31
0.000000
 0
LINE
 8
0
 6
CONTINUOUS
 62
7
 10
-60.537897
 20
-99.000003
 30
0.000000
 11
-51.937897
 21
-99.000003
 31
0.000000
 0
LINE
 8
0
 6
CONTINUOUS
 62
7
 10
-50.237897
 20
-104.774559
 30
0.000000
 11
-51.783041
 21
-98.800003
 31
0.000000
 0
LINE
 8
0
 6
CONTINUOUS
 62
7
 10
-51.783041
 20
-98.800003
 30
0.000000
 11
-60.551440
 21
-98.800003
 31
0.000000
 0
LINE
 8
0
 6
CONTINUOUS
 62
7
 10
-73.737898
 20
-106.902310
 30
0.000000
 11
-73.737898
 21
-106.702310
 31
0.000000
 0
LINE
 8
0
 6
CONTINUOUS
 62
7
 10
-73.737898
 20
-106.702310
 30
0.000000
 11
-75.237898
 21
-106.702310
 31
0.000000
 0
LINE
 8
0
 6
CONTINUOUS
 62
7
 10
-75.437898
 20
-106.902310
 30
0.000000
 11
-73.737898
 21
-106.902310
 31
0.000000
 0
LINE
 8
0
 6
CONTINUOUS
 62
7
 10
-51.937897
 20
-99.000003
 30
0.000000
 11
-50.437897
 21
-104.800003
 31
0.000000
 0
LINE
 8
0
 6
CONTINUOUS
 62
7
 10
-50.437897
 20
-104.800003
 30
0.000000
 11
-50.437897
 21
-106.502310
 31
0.000000
 0
LINE
 8
0
 6
CONTINUOUS
 62
7
 10
-51.937897
 20
-106.702310
 30
0.000000
 11
-50.237897
 21
-106.702310
 31
0.000000
 0
LINE
 8
0
 6
CONTINUOUS
 62
7
 10
-50.237897
 20
-106.702310
 30
0.000000
 11
-50.237897
 21
-104.774559
 31
0.000000
 0
LINE
 8
0
 6
CONTINUOUS
 62
7
 10
-51.937897
 20
-106.502310
 30
0.000000
 11
-51.937897
 21
-106.702310
 31
0.000000
 0
LINE
 8
0
 6
CONTINUOUS
 62
7
 10
-50.437897
 20
-106.502310
 30
0.000000
 11
-50.637897
 21
-106.502310
 31
0.000000
 0
LINE
 8
0
 6
CONTINUOUS
 62
7
 10
-50.637897
 20
-106.502310
 30
0.000000
 11
-51.937897
 21
-106.502310
 31
0.000000
 0
LINE
 8
0
 6
CONTINUOUS
 62
7
 10
-57.587897
 20
-150.000002
 30
0.000000
 11
-58.987897
 21
-150.000002
 31
0.000000
 0
LINE
 8
0
 6
CONTINUOUS
 62
7
 10
-58.987897
 20
-147.000002
 30
0.000000
 11
-57.587897
 21
-147.000002
 31
0.000000
 0
LINE
 8
0
 6
CONTINUOUS
 62
7
 10
-59.022099
 20
-146.993972
 30
0.000000
 11
-59.056743
 21
-147.089155
 31
0.000000
 0
LINE
 8
0
 6
CONTINUOUS
 62
7
 10
-59.086378
 20
-146.917367
 30
0.000000
 11
-59.087897
 21
-146.900002
 31
0.000000
 0
LINE
 8
0
 6
CONTINUOUS
 62
7
 10
-59.086378
 20
-146.917367
 30
0.000000
 11
-59.113438
 21
-146.900002
 31
0.000000
 0
LINE
 8
0
 6
CONTINUOUS
 62
7
 10
-59.186131
 20
-146.934956
 30
0.000000
 11
-59.113438
 21
-146.900002
 31
0.000000
 0
LINE
 8
0
 6
CONTINUOUS
 62
7
 10
-62.015649
 20
-147.433877
 30
0.000000
 11
-62.087897
 21
-146.900002
 31
0.000000
 0
LINE
 8
0
 6
CONTINUOUS
 62
7
 10
-59.022099
 20
-146.993972
 30
0.000000
 11
-58.987897
 21
-147.000002
 31
0.000000
 0
LINE
 8
0
 6
CONTINUOUS
 62
7
 10
-59.052176
 20
-146.976607
 30
0.000000
 11
-59.022099
 21
-146.993972
 31
0.000000
 0
LINE
 8
0
 6
CONTINUOUS
 62
7
 10
-59.086378
 20
-146.917367
 30
0.000000
 11
-59.186131
 21
-146.934956
 31
0.000000
 0
LINE
 8
0
 6
CONTINUOUS
 62
7
 10
-59.052176
 20
-146.976607
 30
0.000000
 11
-59.074500
 21
-146.950002
 31
0.000000
 0
LINE
 8
0
 6
CONTINUOUS
 62
7
 10
-59.086378
 20
-146.917367
 30
0.000000
 11
-59.074500
 21
-146.950002
 31
0.000000
 0
LINE
 8
0
 6
CONTINUOUS
 62
7
 10
-61.650457
 20
-148.437232
 30
0.000000
 11
-62.015649
 21
-147.433877
 31
0.000000
 0
LINE
 8
0
 6
CONTINUOUS
 62
7
 10
-58.987897
 20
-150.000002
 30
0.000000
 11
-60.039424
 21
-149.789049
 31
0.000000
 0
LINE
 8
0
 6
CONTINUOUS
 62
7
 10
-60.039424
 20
-149.789049
 30
0.000000
 11
-60.964122
 21
-149.255175
 31
0.000000
 0
LINE
 8
0
 6
CONTINUOUS
 62
7
 10
-59.186131
 20
-146.934956
 30
0.000000
 11
-59.471917
 21
-146.985348
 31
0.000000
 0
LINE
 8
0
 6
CONTINUOUS
 62
7
 10
-60.964122
 20
-149.255175
 30
0.000000
 11
-61.650457
 21
-148.437232
 31
0.000000
 0
LINE
 8
0
 6
CONTINUOUS
 62
7
 10
-62.087897
 20
-146.085082
 30
0.000000
 11
-62.087897
 21
-146.900002
 31
0.000000
 0
LINE
 8
0
 6
CONTINUOUS
 62
7
 10
-59.087897
 20
-146.085082
 30
0.000000
 11
-59.087897
 21
-146.900002
 31
0.000000
 0
LINE
 8
0
 6
CONTINUOUS
 62
7
 10
-57.587897
 20
-147.000002
 30
0.000000
 11
-57.587897
 21
-147.025543
 31
0.000000
 0
LINE
 8
0
 6
CONTINUOUS
 62
7
 10
-57.587897
 20
-147.025543
 30
0.000000
 11
-57.587897
 21
-147.224677
 31
0.000000
 0
LINE
 8
0
 6
CONTINUOUS
 62
7
 10
-57.587897
 20
-149.608516
 30
0.000000
 11
-57.587897
 21
-149.898711
 31
0.000000
 0
LINE
 8
0
 6
CONTINUOUS
 62
7
 10
-57.587897
 20
-147.224677
 30
0.000000
 11
-57.587897
 21
-147.596050
 31
0.000000
 0
LINE
 8
0
 6
CONTINUOUS
 62
7
 10
-57.587897
 20
-147.596050
 30
0.000000
 11
-57.587897
 21
-148.089508
 31
0.000000
 0
LINE
 8
0
 6
CONTINUOUS
 62
7
 10
-57.587897
 20
-148.089508
 30
0.000000
 11
-57.587897
 21
-148.638405
 31
0.000000
 0
LINE
 8
0
 6
CONTINUOUS
 62
7
 10
-57.587897
 20
-148.638405
 30
0.000000
 11
-57.587897
 21
-149.168610
 31
0.000000
 0
LINE
 8
0
 6
CONTINUOUS
 62
7
 10
-57.587897
 20
-149.168610
 30
0.000000
 11
-57.587897
 21
-149.608516
 31
0.000000
 0
LINE
 8
0
 6
CONTINUOUS
 62
7
 10
-57.587897
 20
-149.898711
 30
0.000000
 11
-57.587897
 21
-150.000002
 31
0.000000
 0
LINE
 8
0
 6
CONTINUOUS
 62
7
 10
-62.288332
 20
-139.502310
 30
0.000000
 11
-62.553843
 21
-139.502310
 31
0.000000
 0
LINE
 8
0
 6
CONTINUOUS
 62
7
 10
-61.793167
 20
-139.502310
 30
0.000000
 11
-62.288332
 21
-139.502310
 31
0.000000
 0
LINE
 8
0
 6
CONTINUOUS
 62
7
 10
-62.587897
 20
-139.502310
 30
0.000000
 11
-62.587897
 21
-141.502310
 31
0.000000
 0
LINE
 8
0
 6
CONTINUOUS
 62
7
 10
-62.553843
 20
-139.502310
 30
0.000000
 11
-62.587897
 21
-139.502310
 31
0.000000
 0
LINE
 8
0
 6
CONTINUOUS
 62
7
 10
-58.587897
 20
-139.502310
 30
0.000000
 11
-58.587897
 21
-141.502310
 31
0.000000
 0
LINE
 8
0
 6
CONTINUOUS
 62
7
 10
-58.587897
 20
-139.502310
 30
0.000000
 11
-58.722953
 21
-139.502310
 31
0.000000
 0
LINE
 8
0
 6
CONTINUOUS
 62
7
 10
-58.722953
 20
-139.502310
 30
0.000000
 11
-59.109879
 21
-139.502310
 31
0.000000
 0
LINE
 8
0
 6
CONTINUOUS
 62
7
 10
-59.109879
 20
-139.502310
 30
0.000000
 11
-59.696421
 21
-139.502310
 31
0.000000
 0
LINE
 8
0
 6
CONTINUOUS
 62
7
 10
-59.696421
 20
-139.502310
 30
0.000000
 11
-60.403361
 21
-139.502310
 31
0.000000
 0
LINE
 8
0
 6
CONTINUOUS
 62
7
 10
-60.403361
 20
-139.502310
 30
0.000000
 11
-61.135223
 21
-139.502310
 31
0.000000
 0
LINE
 8
0
 6
CONTINUOUS
 62
7
 10
-61.135223
 20
-139.502310
 30
0.000000
 11
-61.793167
 21
-139.502310
 31
0.000000
 0
LINE
 8
0
 6
CONTINUOUS
 62
7
 10
-62.288332
 20
-141.502310
 30
0.000000
 11
-62.553843
 21
-141.502310
 31
0.000000
 0
LINE
 8
0
 6
CONTINUOUS
 62
7
 10
-59.696421
 20
-141.502310
 30
0.000000
 11
-60.403361
 21
-141.502310
 31
0.000000
 0
LINE
 8
0
 6
CONTINUOUS
 62
7
 10
-60.403361
 20
-141.502310
 30
0.000000
 11
-61.135223
 21
-141.502310
 31
0.000000
 0
LINE
 8
0
 6
CONTINUOUS
 62
7
 10
-59.109879
 20
-141.502310
 30
0.000000
 11
-59.696421
 21
-141.502310
 31
0.000000
 0
LINE
 8
0
 6
CONTINUOUS
 62
7
 10
-62.553843
 20
-141.502310
 30
0.000000
 11
-62.587897
 21
-141.502310
 31
0.000000
 0
LINE
 8
0
 6
CONTINUOUS
 62
7
 10
-58.587897
 20
-141.502310
 30
0.000000
 11
-58.722953
 21
-141.502310
 31
0.000000
 0
LINE
 8
0
 6
CONTINUOUS
 62
7
 10
-58.722953
 20
-141.502310
 30
0.000000
 11
-59.109879
 21
-141.502310
 31
0.000000
 0
LINE
 8
0
 6
CONTINUOUS
 62
7
 10
-61.135223
 20
-141.502310
 30
0.000000
 11
-61.793167
 21
-141.502310
 31
0.000000
 0
LINE
 8
0
 6
CONTINUOUS
 62
7
 10
-61.793167
 20
-141.502310
 30
0.000000
 11
-62.288332
 21
-141.502310
 31
0.000000
 0
LINE
 8
0
 6
CONTINUOUS
 62
7
 10
-62.062357
 20
-144.002310
 30
0.000000
 11
-62.087897
 21
-144.002310
 31
0.000000
 0
LINE
 8
0
 6
CONTINUOUS
 62
7
 10
-59.087897
 20
-144.002310
 30
0.000000
 11
-59.189189
 21
-144.002310
 31
0.000000
 0
LINE
 8
0
 6
CONTINUOUS
 62
7
 10
-61.863223
 20
-144.002310
 30
0.000000
 11
-62.062357
 21
-144.002310
 31
0.000000
 0
LINE
 8
0
 6
CONTINUOUS
 62
7
 10
-59.189189
 20
-144.002310
 30
0.000000
 11
-59.479384
 21
-144.002310
 31
0.000000
 0
LINE
 8
0
 6
CONTINUOUS
 62
7
 10
-61.491849
 20
-144.002310
 30
0.000000
 11
-61.863223
 21
-144.002310
 31
0.000000
 0
LINE
 8
0
 6
CONTINUOUS
 62
7
 10
-59.479384
 20
-144.002310
 30
0.000000
 11
-59.919290
 21
-144.002310
 31
0.000000
 0
LINE
 8
0
 6
CONTINUOUS
 62
7
 10
-60.449495
 20
-144.002310
 30
0.000000
 11
-60.998392
 21
-144.002310
 31
0.000000
 0
LINE
 8
0
 6
CONTINUOUS
 62
7
 10
-59.919290
 20
-144.002310
 30
0.000000
 11
-60.449495
 21
-144.002310
 31
0.000000
 0
LINE
 8
0
 6
CONTINUOUS
 62
7
 10
-60.998392
 20
-144.002310
 30
0.000000
 11
-61.491849
 21
-144.002310
 31
0.000000
 0
LINE
 8
0
 6
CONTINUOUS
 62
7
 10
-62.087897
 20
-141.502310
 30
0.000000
 11
-62.087897
 21
-144.002310
 31
0.000000
 0
LINE
 8
0
 6
CONTINUOUS
 62
7
 10
-59.087897
 20
-141.502310
 30
0.000000
 11
-59.087897
 21
-144.002310
 31
0.000000
 0
LINE
 8
0
 6
CONTINUOUS
 62
7
 10
-50.637897
 20
-106.502310
 30
0.000000
 11
-50.637897
 21
-105.202311
 31
0.000000
 0
LINE
 8
0
 6
CONTINUOUS
 62
7
 10
-50.637897
 20
-105.202311
 30
0.000000
 11
-75.037898
 21
-105.202311
 31
0.000000
 0
LINE
 8
0
 6
CONTINUOUS
 62
7
 10
-75.037898
 20
-106.502310
 30
0.000000
 11
-73.537898
 21
-106.502310
 31
0.000000
 0
LINE
 8
0
 6
CONTINUOUS
 62
7
 10
-75.037898
 20
-105.202311
 30
0.000000
 11
-75.037898
 21
-106.502310
 31
0.000000
 0
LINE
 8
0
 6
CONTINUOUS
 62
7
 10
-50.637897
 20
-111.302310
 30
0.000000
 11
-52.137897
 21
-106.502310
 31
0.000000
 0
LINE
 8
0
 6
CONTINUOUS
 62
7
 10
-73.537898
 20
-106.502310
 30
0.000000
 11
-75.037898
 21
-111.302310
 31
0.000000
 0
LINE
 8
0
 6
CONTINUOUS
 62
7
 10
-50.637897
 20
-123.922793
 30
0.000000
 11
-50.637897
 21
-111.302310
 31
0.000000
 0
LINE
 8
0
 6
CONTINUOUS
 62
7
 10
-75.037898
 20
-111.302310
 30
0.000000
 11
-75.037898
 21
-139.502310
 31
0.000000
 0
LINE
 8
0
 6
CONTINUOUS
 62
7
 10
-75.037898
 20
-139.502310
 30
0.000000
 11
-45.537897
 21
-139.502310
 31
0.000000
 0
LINE
 8
0
 6
CONTINUOUS
 62
7
 10
-45.537897
 20
-127.109627
 30
0.000000
 11
-50.637897
 21
-123.922793
 31
0.000000
 0
LINE
 8
0
 6
CONTINUOUS
 62
7
 10
-45.537897
 20
-139.502310
 30
0.000000
 11
-45.537897
 21
-127.109627
 31
0.000000
 0
LINE
 8
0
 6
CONTINUOUS
 62
7
 10
-52.137897
 20
-106.502310
 30
0.000000
 11
-51.937897
 21
-106.502310
 31
0.000000
 0
LINE
 8
0
 6
CONTINUOUS
 62
7
 10
-51.937897
 20
-106.502310
 30
0.000000
 11
-50.637897
 21
-106.502310
 31
0.000000
 0
LINE
 8
0
 6
CONTINUOUS
 62
7
 10
-62.887897
 20
-146.085082
 30
0.000000
 11
-62.887897
 21
-144.002310
 31
0.000000
 0
LINE
 8
0
 6
CONTINUOUS
 62
7
 10
-62.887897
 20
-146.085082
 30
0.000000
 11
-62.848735
 21
-146.085082
 31
0.000000
 0
LINE
 8
0
 6
CONTINUOUS
 62
7
 10
-62.848735
 20
-146.085082
 30
0.000000
 11
-62.543397
 21
-146.085082
 31
0.000000
 0
LINE
 8
0
 6
CONTINUOUS
 62
7
 10
-62.543397
 20
-146.085082
 30
0.000000
 11
-61.973957
 21
-146.085082
 31
0.000000
 0
LINE
 8
0
 6
CONTINUOUS
 62
7
 10
-61.973957
 20
-146.085082
 30
0.000000
 11
-61.217322
 21
-146.085082
 31
0.000000
 0
LINE
 8
0
 6
CONTINUOUS
 62
7
 10
-61.217322
 20
-146.085082
 30
0.000000
 11
-60.375680
 21
-146.085082
 31
0.000000
 0
LINE
 8
0
 6
CONTINUOUS
 62
7
 10
-60.375680
 20
-146.085082
 30
0.000000
 11
-59.562699
 21
-146.085082
 31
0.000000
 0
LINE
 8
0
 6
CONTINUOUS
 62
7
 10
-59.562699
 20
-146.085082
 30
0.000000
 11
-58.888177
 21
-146.085082
 31
0.000000
 0
LINE
 8
0
 6
CONTINUOUS
 62
7
 10
-58.888177
 20
-146.085082
 30
0.000000
 11
-58.443211
 21
-146.085082
 31
0.000000
 0
LINE
 8
0
 6
CONTINUOUS
 62
7
 10
-58.287897
 20
-146.085082
 30
0.000000
 11
-58.287897
 21
-144.002310
 31
0.000000
 0
LINE
 8
0
 6
CONTINUOUS
 62
7
 10
-58.443211
 20
-146.085082
 30
0.000000
 11
-58.287897
 21
-146.085082
 31
0.000000
 0
LINE
 8
0
 6
CONTINUOUS
 62
7
 10
-61.973957
 20
-144.002310
 30
0.000000
 11
-61.217322
 21
-144.002310
 31
0.000000
 0
LINE
 8
0
 6
CONTINUOUS
 62
7
 10
-60.375680
 20
-144.002310
 30
0.000000
 11
-59.562699
 21
-144.002310
 31
0.000000
 0
LINE
 8
0
 6
CONTINUOUS
 62
7
 10
-61.217322
 20
-144.002310
 30
0.000000
 11
-60.375680
 21
-144.002310
 31
0.000000
 0
LINE
 8
0
 6
CONTINUOUS
 62
7
 10
-62.543397
 20
-144.002310
 30
0.000000
 11
-61.973957
 21
-144.002310
 31
0.000000
 0
LINE
 8
0
 6
CONTINUOUS
 62
7
 10
-59.562699
 20
-144.002310
 30
0.000000
 11
-58.888177
 21
-144.002310
 31
0.000000
 0
LINE
 8
0
 6
CONTINUOUS
 62
7
 10
-58.888177
 20
-144.002310
 30
0.000000
 11
-58.443211
 21
-144.002310
 31
0.000000
 0
LINE
 8
0
 6
CONTINUOUS
 62
7
 10
-62.848735
 20
-144.002310
 30
0.000000
 11
-62.543397
 21
-144.002310
 31
0.000000
 0
LINE
 8
0
 6
CONTINUOUS
 62
7
 10
-58.443211
 20
-144.002310
 30
0.000000
 11
-58.287897
 21
-144.002310
 31
0.000000
 0
LINE
 8
0
 6
CONTINUOUS
 62
7
 10
-62.887897
 20
-144.002310
 30
0.000000
 11
-62.848735
 21
-144.002310
 31
0.000000
 0
LINE
 8
0
 6
CONTINUOUS
 62
7
 10
-70.985978
 20
-105.202311
 30
0.000000
 11
-70.987898
 21
-105.002311
 31
0.000000
 0
LINE
 8
0
 6
CONTINUOUS
 62
7
 10
-70.089817
 20
-105.202311
 30
0.000000
 11
-70.089817
 21
-105.002311
 31
0.000000
 0
LINE
 8
0
 6
CONTINUOUS
 62
7
 10
-70.154437
 20
-104.580230
 30
0.000000
 11
-70.089817
 21
-105.002311
 31
0.000000
 0
LINE
 8
0
 6
CONTINUOUS
 62
7
 10
-71.012711
 20
-104.824430
 30
0.000000
 11
-70.987898
 21
-105.002311
 31
0.000000
 0
LINE
 8
0
 6
CONTINUOUS
 62
7
 10
-71.518460
 20
-104.363378
 30
0.000000
 11
-71.637898
 21
-104.352311
 31
0.000000
 0
LINE
 8
0
 6
CONTINUOUS
 62
7
 10
-71.354494
 20
-103.486234
 30
0.000000
 11
-71.637898
 21
-103.454230
 31
0.000000
 0
LINE
 8
0
 6
CONTINUOUS
 62
7
 10
-71.012711
 20
-104.824430
 30
0.000000
 11
-71.119186
 21
-104.610598
 31
0.000000
 0
LINE
 8
0
 6
CONTINUOUS
 62
7
 10
-71.295717
 20
-104.449669
 30
0.000000
 11
-71.518460
 21
-104.363378
 31
0.000000
 0
LINE
 8
0
 6
CONTINUOUS
 62
7
 10
-71.119186
 20
-104.610598
 30
0.000000
 11
-71.295717
 21
-104.449669
 31
0.000000
 0
LINE
 8
0
 6
CONTINUOUS
 62
7
 10
-70.154437
 20
-104.580230
 30
0.000000
 11
-70.407085
 21
-104.072844
 31
0.000000
 0
LINE
 8
0
 6
CONTINUOUS
 62
7
 10
-70.825961
 20
-103.690988
 30
0.000000
 11
-70.407085
 21
-104.072844
 31
0.000000
 0
LINE
 8
0
 6
CONTINUOUS
 62
7
 10
-71.354494
 20
-103.486234
 30
0.000000
 11
-70.825961
 21
-103.690988
 31
0.000000
 0
LINE
 8
0
 6
CONTINUOUS
 62
7
 10
-73.037898
 20
-103.454230
 30
0.000000
 11
-71.637898
 21
-103.454230
 31
0.000000
 0
LINE
 8
0
 6
CONTINUOUS
 62
7
 10
-73.037898
 20
-104.350391
 30
0.000000
 11
-71.637898
 21
-104.352311
 31
0.000000
 0
LINE
 8
0
 6
CONTINUOUS
 62
7
 10
-77.237898
 20
-105.028144
 30
0.000000
 11
-77.237898
 21
-103.902311
 31
0.000000
 0
LINE
 8
0
 6
CONTINUOUS
 62
7
 10
-77.237898
 20
-103.902311
 30
0.000000
 11
-77.237898
 21
-102.776477
 31
0.000000
 0
LINE
 8
0
 6
CONTINUOUS
 62
7
 10
-75.437898
 20
-102.776477
 30
0.000000
 11
-77.237898
 21
-102.776477
 31
0.000000
 0
LINE
 8
0
 6
CONTINUOUS
 62
7
 10
-75.437898
 20
-103.902311
 30
0.000000
 11
-77.237898
 21
-103.902311
 31
0.000000
 0
LINE
 8
0
 6
CONTINUOUS
 62
7
 10
-77.237898
 20
-105.028144
 30
0.000000
 11
-75.437898
 21
-105.028144
 31
0.000000
 0
LINE
 8
0
 6
CONTINUOUS
 62
7
 10
-75.037898
 20
-102.776477
 30
0.000000
 11
-73.037898
 21
-102.776477
 31
0.000000
 0
LINE
 8
0
 6
CONTINUOUS
 62
7
 10
-75.037898
 20
-105.028144
 30
0.000000
 11
-73.037898
 21
-105.028144
 31
0.000000
 0
LINE
 8
0
 6
CONTINUOUS
 62
7
 10
-73.037898
 20
-103.902311
 30
0.000000
 11
-75.037898
 21
-103.902311
 31
0.000000
 0
LINE
 8
0
 6
CONTINUOUS
 62
7
 10
-73.037898
 20
-102.776477
 30
0.000000
 11
-73.037898
 21
-103.902311
 31
0.000000
 0
LINE
 8
0
 6
CONTINUOUS
 62
7
 10
-73.037898
 20
-103.902311
 30
0.000000
 11
-73.037898
 21
-105.028144
 31
0.000000
 0
LINE
 8
0
 6
CONTINUOUS
 62
7
 10
-75.037898
 20
-105.028144
 30
0.000000
 11
-75.037898
 21
-103.902311
 31
0.000000
 0
LINE
 8
0
 6
CONTINUOUS
 62
7
 10
-75.037898
 20
-103.902311
 30
0.000000
 11
-75.037898
 21
-102.776477
 31
0.000000
 0
ENDSEC
 0
EOF
